  0
SECTION
  2
HEADER
  9
$ACADVER
  1
AC1015
  9
$ACADMAINTVER
 70
     6
  9
$DWGCODEPAGE
  3
ANSI_1254
  9
$INSBASE
 10
0.0
 20
0.0
 30
0.0
  9
$EXTMIN
 10
0.0
 20
0.0
 30
0.0
  9
$EXTMAX
 10
279.4
 20
215.9
 30
0.0
  9
$LIMMIN
 10
0.0
 20
0.0
  9
$LIMMAX
 10
279.4
 20
215.9
  9
$ORTHOMODE
 70
     0
  9
$REGENMODE
 70
     1
  9
$FILLMODE
 70
     1
  9
$QTEXTMODE
 70
     0
  9
$MIRRTEXT
 70
     1
  9
$LTSCALE
 40
1.0
  9
$ATTMODE
 70
     1
  9
$TEXTSIZE
 40
3.5
  9
$TRACEWID
 40
1.0
  9
$TEXTSTYLE
  7
Standard
  9
$CLAYER
  8
0
  9
$CELTYPE
  6
ByLayer
  9
$CECOLOR
 62
   256
  9
$CELTSCALE
 40
1.0
  9
$DISPSILH
 70
     0
  9
$DIMSCALE
 40
1.0
  9
$DIMASZ
 40
3.5
  9
$DIMEXO
 40
1.0
  9
$DIMDLI
 40
3.75
  9
$DIMRND
 40
0.0
  9
$DIMDLE
 40
0.0
  9
$DIMEXE
 40
1.0
  9
$DIMTP
 40
0.0
  9
$DIMTM
 40
0.0
  9
$DIMTXT
 40
3.5
  9
$DIMCEN
 40
2.5
  9
$DIMTSZ
 40
0.0
  9
$DIMTOL
 70
     0
  9
$DIMLIM
 70
     0
  9
$DIMTIH
 70
     1
  9
$DIMTOH
 70
     1
  9
$DIMSE1
 70
     0
  9
$DIMSE2
 70
     0
  9
$DIMTAD
 70
     1
  9
$DIMZIN
 70
     0
  9
$DIMBLK
  1

  9
$DIMASO
 70
     1
  9
$DIMSHO
 70
     1
  9
$DIMPOST
  1

  9
$DIMAPOST
  1

  9
$DIMALT
 70
     0
  9
$DIMALTD
 70
     3
  9
$DIMALTF
 40
0.0393700787
  9
$DIMLFAC
 40
1.0
  9
$DIMTOFL
 70
     1
  9
$DIMTVP
 40
0.0
  9
$DIMTIX
 70
     0
  9
$DIMSOXD
 70
     0
  9
$DIMSAH
 70
     0
  9
$DIMBLK1
  1

  9
$DIMBLK2
  1

  9
$DIMSTYLE
  2
ISO-25
  9
$DIMCLRD
 70
     0
  9
$DIMCLRE
 70
     0
  9
$DIMCLRT
 70
     0
  9
$DIMTFAC
 40
1.0
  9
$DIMGAP
 40
1.524
  9
$DIMJUST
 70
     0
  9
$DIMSD1
 70
     0
  9
$DIMSD2
 70
     0
  9
$DIMTOLJ
 70
     0
  9
$DIMTZIN
 70
     0
  9
$DIMALTZ
 70
     0
  9
$DIMALTTZ
 70
     0
  9
$DIMUPT
 70
     0
  9
$DIMDEC
 70
     2
  9
$DIMTDEC
 70
     2
  9
$DIMALTU
 70
     2
  9
$DIMALTTD
 70
     3
  9
$DIMTXSTY
  7
Standard
  9
$DIMAUNIT
 70
     0
  9
$DIMADEC
 70
     2
  9
$DIMALTRND
 40
0.0
  9
$DIMAZIN
 70
     0
  9
$DIMDSEP
 70
    44
  9
$DIMATFIT
 70
     3
  9
$DIMFRAC
 70
     0
  9
$DIMLDRBLK
  1

  9
$DIMLUNIT
 70
     2
  9
$DIMLWD
 70
    -2
  9
$DIMLWE
 70
    -2
  9
$DIMTMOVE
 70
     0
  9
$LUNITS
 70
     2
  9
$LUPREC
 70
     2
  9
$SKETCHINC
 40
1.0
  9
$FILLETRAD
 40
10.0
  9
$AUNITS
 70
     0
  9
$AUPREC
 70
     2
  9
$MENU
  1
.
  9
$ELEVATION
 40
0.0
  9
$PELEVATION
 40
0.0
  9
$THICKNESS
 40
0.0
  9
$LIMCHECK
 70
     0
  9
$CHAMFERA
 40
0.0
  9
$CHAMFERB
 40
0.0
  9
$CHAMFERC
 40
0.0
  9
$CHAMFERD
 40
0.0
  9
$SKPOLY
 70
     0
  9
$TDCREATE
 40
2459935.709177407
  9
$TDUCREATE
 40
2459935.584177407
  9
$TDUPDATE
 40
2459935.709177569
  9
$TDUUPDATE
 40
2459935.584177569
  9
$TDINDWG
 40
0.0000000116
  9
$TDUSRTIMER
 40
0.0000000116
  9
$USRTIMER
 70
     1
  9
$ANGBASE
 50
0.0
  9
$ANGDIR
 70
     0
  9
$PDMODE
 70
     0
  9
$PDSIZE
 40
-1.0
  9
$PLINEWID
 40
0.0
  9
$SPLFRAME
 70
     0
  9
$SPLINETYPE
 70
     6
  9
$SPLINESEGS
 70
     8
  9
$HANDSEED
  5
14F
  9
$SURFTAB1
 70
     6
  9
$SURFTAB2
 70
     6
  9
$SURFTYPE
 70
     6
  9
$SURFU
 70
     6
  9
$SURFV
 70
     6
  9
$UCSBASE
  2

  9
$UCSNAME
  2

  9
$UCSORG
 10
0.0
 20
0.0
 30
0.0
  9
$UCSXDIR
 10
1.0
 20
0.0
 30
0.0
  9
$UCSYDIR
 10
0.0
 20
1.0
 30
0.0
  9
$UCSORTHOREF
  2

  9
$UCSORTHOVIEW
 70
     0
  9
$UCSORGTOP
 10
0.0
 20
0.0
 30
0.0
  9
$UCSORGBOTTOM
 10
0.0
 20
0.0
 30
0.0
  9
$UCSORGLEFT
 10
0.0
 20
0.0
 30
0.0
  9
$UCSORGRIGHT
 10
0.0
 20
0.0
 30
0.0
  9
$UCSORGFRONT
 10
0.0
 20
0.0
 30
0.0
  9
$UCSORGBACK
 10
0.0
 20
0.0
 30
0.0
  9
$PUCSBASE
  2

  9
$PUCSNAME
  2

  9
$PUCSORG
 10
0.0
 20
0.0
 30
0.0
  9
$PUCSXDIR
 10
1.0
 20
0.0
 30
0.0
  9
$PUCSYDIR
 10
0.0
 20
1.0
 30
0.0
  9
$PUCSORTHOREF
  2

  9
$PUCSORTHOVIEW
 70
     0
  9
$PUCSORGTOP
 10
0.0
 20
0.0
 30
0.0
  9
$PUCSORGBOTTOM
 10
0.0
 20
0.0
 30
0.0
  9
$PUCSORGLEFT
 10
0.0
 20
0.0
 30
0.0
  9
$PUCSORGRIGHT
 10
0.0
 20
0.0
 30
0.0
  9
$PUCSORGFRONT
 10
0.0
 20
0.0
 30
0.0
  9
$PUCSORGBACK
 10
0.0
 20
0.0
 30
0.0
  9
$USERI1
 70
     0
  9
$USERI2
 70
     0
  9
$USERI3
 70
     0
  9
$USERI4
 70
     0
  9
$USERI5
 70
     0
  9
$USERR1
 40
0.0
  9
$USERR2
 40
0.0
  9
$USERR3
 40
0.0
  9
$USERR4
 40
0.0
  9
$USERR5
 40
0.0
  9
$WORLDVIEW
 70
     1
  9
$SHADEDGE
 70
     3
  9
$SHADEDIF
 70
    70
  9
$TILEMODE
 70
     1
  9
$MAXACTVP
 70
    64
  9
$PINSBASE
 10
0.0
 20
0.0
 30
0.0
  9
$PLIMCHECK
 70
     0
  9
$PEXTMIN
 10
1.0000000000E+20
 20
1.0000000000E+20
 30
1.0000000000E+20
  9
$PEXTMAX
 10
-1.0000000000E+20
 20
-1.0000000000E+20
 30
-1.0000000000E+20
  9
$PLIMMIN
 10
0.0
 20
0.0
  9
$PLIMMAX
 10
420.0
 20
297.0
  9
$UNITMODE
 70
     0
  9
$VISRETAIN
 70
     1
  9
$PLINEGEN
 70
     0
  9
$PSLTSCALE
 70
     1
  9
$TREEDEPTH
 70
  3020
  9
$CMLSTYLE
  2
Standard
  9
$CMLJUST
 70
     0
  9
$CMLSCALE
 40
20.0
  9
$PROXYGRAPHICS
 70
     1
  9
$MEASUREMENT
 70
     1
  9
$CELWEIGHT
370
    -1
  9
$ENDCAPS
280
     0
  9
$JOINSTYLE
280
     0
  9
$LWDISPLAY
290
     1
  9
$INSUNITS
 70
     4
  9
$HYPERLINKBASE
  1

  9
$STYLESHEET
  1

  9
$XEDIT
290
     1
  9
$CEPSNTYPE
380
     0
  9
$PSTYLEMODE
290
     1
  9
$FINGERPRINTGUID
  2
{c2225d9d-b887-4b4f-8882-a1ba5fb02fb8}
  9
$VERSIONGUID
  2
{FAEB1C32-E019-11D5-929B-00C0DF256EC4}
  9
$EXTNAMES
290
     1
  9
$PSVPSCALE
 40
0.0
  9
$OLESTARTUP
290
     0
  0
ENDSEC
  0
SECTION
  2
CLASSES
  0
CLASS
  1
ACDBDICTIONARYWDFLT
  2
AcDbDictionaryWithDefault
  3
ObjectDBX Classes
 90
        0
280
     0
281
     0
  0
CLASS
  1
VISUALSTYLE
  2
AcDbVisualStyle
  3
ObjectDBX Classes
 90
     4095
280
     0
281
     0
  0
CLASS
  1
MATERIAL
  2
AcDbMaterial
  3
ObjectDBX Classes
 90
     1153
280
     0
281
     0
  0
CLASS
  1
SCALE
  2
AcDbScale
  3
ObjectDBX Classes
 90
     1153
280
     0
281
     0
  0
CLASS
  1
TABLESTYLE
  2
AcDbTableStyle
  3
ObjectDBX Classes
 90
     4095
280
     0
281
     0
  0
CLASS
  1
MLEADERSTYLE
  2
AcDbMLeaderStyle
  3
ACDB_MLEADERSTYLE_CLASS
 90
     4095
280
     0
281
     0
  0
CLASS
  1
SUN
  2
AcDbSun
  3
SCENEOE
 90
     1153
280
     0
281
     0
  0
CLASS
  1
ACDBPLACEHOLDER
  2
AcDbPlaceHolder
  3
ObjectDBX Classes
 90
        0
280
     0
281
     0
  0
CLASS
  1
LAYOUT
  2
AcDbLayout
  3
ObjectDBX Classes
 90
        0
280
     0
281
     0
  0
ENDSEC
  0
SECTION
  2
TABLES
  0
TABLE
  2
VPORT
  5
8
330
0
100
AcDbSymbolTable
 70
     1
  0
VPORT
  5
29
330
8
100
AcDbSymbolTableRecord
100
AcDbViewportTableRecord
  2
*Active
 70
     0
 10
0.0
 20
0.0
 11
1.0
 21
1.0
 12
139.7
 22
107.95
 13
0.0
 23
0.0
 14
10.0
 24
10.0
 15
10.0
 25
10.0
 16
0.0
 26
0.0
 36
1.0
 17
0.0
 27
0.0
 37
0.0
 40
215.9
 41
1.2941176471
 42
50.0
 43
0.0
 44
0.0
 50
0.0
 51
0.0
 71
     0
 72
  2000
 73
     1
 74
     3
 75
     0
 76
     0
 77
     0
 78
     0
281
     0
 65
     1
110
0.0
120
0.0
130
0.0
111
1.0
121
0.0
131
0.0
112
0.0
122
1.0
132
0.0
 79
     0
146
0.0
  0
ENDTAB
  0
TABLE
  2
LTYPE
  5
5
330
0
100
AcDbSymbolTable
 70
     6
  0
LTYPE
  5
14
330
5
100
AcDbSymbolTableRecord
100
AcDbLinetypeTableRecord
  2
ByBlock
 70
     0
  3

 72
    65
 73
     0
 40
0.0
  0
LTYPE
  5
15
330
5
100
AcDbSymbolTableRecord
100
AcDbLinetypeTableRecord
  2
ByLayer
 70
     0
  3

 72
    65
 73
     0
 40
0.0
  0
LTYPE
  5
16
330
5
100
AcDbSymbolTableRecord
100
AcDbLinetypeTableRecord
  2
Continuous
 70
     0
  3
Solid line
 72
    65
 73
     0
 40
0.0
  0
LTYPE
  5
6E
330
5
100
AcDbSymbolTableRecord
100
AcDbLinetypeTableRecord
  2
HIDDEN
 70
     0
  3
Hidden __ __ __ __ __ __ __ __ __ __ __ __ __ __
 72
    65
 73
     2
 40
1.905
 49
1.27
 74
     0
 49
-0.635
 74
     0
  0
LTYPE
  5
6F
330
5
100
AcDbSymbolTableRecord
100
AcDbLinetypeTableRecord
  2
PHANTOM
 70
     0
  3
Phantom ______  __  __  ______  __  __  ______
 72
    65
 73
     6
 40
12.7
 49
6.35
 74
     0
 49
-1.27
 74
     0
 49
1.27
 74
     0
 49
-1.27
 74
     0
 49
1.27
 74
     0
 49
-1.27
 74
     0
  0
LTYPE
  5
70
330
5
100
AcDbSymbolTableRecord
100
AcDbLinetypeTableRecord
  2
CENTER
 70
     0
  3
Center ____ _ ____ _ ____ _ ____ _ ____ _ ____
 72
    65
 73
     4
 40
10.16
 49
6.35
 74
     0
 49
-1.27
 74
     0
 49
1.27
 74
     0
 49
-1.27
 74
     0
  0
LTYPE
  5
71
330
5
100
AcDbSymbolTableRecord
100
AcDbLinetypeTableRecord
  2
CENTERX2
 70
     0
  3
Center (2x) ________  __  ________  __  _____
 72
    65
 73
     4
 40
20.32
 49
12.7
 74
     0
 49
-2.54
 74
     0
 49
2.54
 74
     0
 49
-2.54
 74
     0
  0
LTYPE
  5
72
330
5
100
AcDbSymbolTableRecord
100
AcDbLinetypeTableRecord
  2
DOT2
 70
     0
  3
Dot (.5x) ........................................
 72
    65
 73
     2
 40
0.635
 49
0.0
 74
     0
 49
-0.635
 74
     0
  0
ENDTAB
  0
TABLE
  2
LAYER
  5
2
330
0
100
AcDbSymbolTable
 70
    17
  0
LAYER
  5
10
330
2
100
AcDbSymbolTableRecord
100
AcDbLayerTableRecord
  2
0
 70
     0
 62
     7
  6
Continuous
370
    -3
390
F
  0
LAYER
  5
73
330
2
100
AcDbSymbolTableRecord
100
AcDbLayerTableRecord
  2
FORMAT
 70
     0
 62
     7
  6
Continuous
370
    -3
390
F
  0
LAYER
  5
74
330
2
100
AcDbSymbolTableRecord
100
AcDbLayerTableRecord
  2
YARDIMCI_GEOMETRI
 70
     0
 62
    -6
  6
Continuous
290
     0
370
    -3
390
F
  0
LAYER
  5
75
330
2
100
AcDbSymbolTableRecord
100
AcDbLayerTableRecord
  2
SAYFA_CERCEVESI
 70
     0
 62
     7
  6
Continuous
370
    25
390
F
  0
LAYER
  5
76
330
2
100
AcDbSymbolTableRecord
100
AcDbLayerTableRecord
  2
ANTET
 70
     0
 62
     7
  6
Continuous
370
    -3
390
F
  0
LAYER
  5
77
330
2
100
AcDbSymbolTableRecord
100
AcDbLayerTableRecord
  2
OLCU
 70
     0
 62
   150
  6
Continuous
370
    -3
390
F
  0
LAYER
  5
78
330
2
100
AcDbSymbolTableRecord
100
AcDbLayerTableRecord
  2
METIN
 70
     0
 62
    96
  6
Continuous
370
    -3
390
F
  0
LAYER
  5
79
330
2
100
AcDbSymbolTableRecord
100
AcDbLayerTableRecord
  2
BALON
 70
     0
 62
     5
  6
Continuous
370
    -3
390
F
  0
LAYER
  5
7A
330
2
100
AcDbSymbolTableRecord
100
AcDbLayerTableRecord
  2
VURGU
 70
     0
 62
     7
  6
Continuous
370
    -3
390
F
  0
LAYER
  5
7B
330
2
100
AcDbSymbolTableRecord
100
AcDbLayerTableRecord
  2
SILIK
 70
     0
 62
     7
  6
Continuous
370
    -3
390
F
  0
LAYER
  5
7C
330
2
100
AcDbSymbolTableRecord
100
AcDbLayerTableRecord
  2
MODEL
 70
     0
 62
     7
  6
Continuous
370
    -3
390
F
  0
LAYER
  5
7D
330
2
100
AcDbSymbolTableRecord
100
AcDbLayerTableRecord
  2
DETAYLANDıRMA
 70
     0
 62
   190
  6
Continuous
370
    -3
390
F
  0
LAYER
  5
7E
330
2
100
AcDbSymbolTableRecord
100
AcDbLayerTableRecord
  2
TOLERANS
 70
     0
 62
   230
  6
Continuous
370
    -3
390
F
  0
LAYER
  5
7F
330
2
100
AcDbSymbolTableRecord
100
AcDbLayerTableRecord
  2
MERKEZ_CIZGILERI
 70
     0
 62
    30
  6
Continuous
370
    -3
390
F
  0
LAYER
  5
80
330
2
100
AcDbSymbolTableRecord
100
AcDbLayerTableRecord
  2
KESIT-DETAY_CIZGILERI
 70
     0
 62
     7
  6
Continuous
370
    -3
390
F
  0
LAYER
  5
81
330
2
100
AcDbSymbolTableRecord
100
AcDbLayerTableRecord
  2
\U+041E\U+0421\U+0415\U+0412\U+042B\U+0415
 70
     0
 62
     7
  6
Continuous
370
    -3
390
F
  0
LAYER
  5
82
330
2
100
AcDbSymbolTableRecord
100
AcDbLayerTableRecord
  2
\U+0412\U+041E\U+0414\U+042F\U+041D\U+042B\U+0415_\U+0417\U+041D\U+0410\U+041A\U+0418
 70
     0
 62
    11
  6
Continuous
370
    -3
390
F
  0
ENDTAB
  0
TABLE
  2
STYLE
  5
3
330
0
100
AcDbSymbolTable
 70
     1
  0
STYLE
  5
11
330
3
100
AcDbSymbolTableRecord
100
AcDbTextStyleTableRecord
  2
Standard
 70
     0
 40
0.0
 41
1.0
 50
0.0
 71
     0
 42
3.5
  3
txt
  4

  0
ENDTAB
  0
TABLE
  2
VIEW
  5
6
330
0
100
AcDbSymbolTable
 70
     0
  0
ENDTAB
  0
TABLE
  2
UCS
  5
7
330
0
100
AcDbSymbolTable
 70
     0
  0
ENDTAB
  0
TABLE
  2
APPID
  5
9
330
0
100
AcDbSymbolTable
 70
     1
  0
APPID
  5
12
330
9
100
AcDbSymbolTableRecord
100
AcDbRegAppTableRecord
  2
ACAD
 70
     0
  0
ENDTAB
  0
TABLE
  2
DIMSTYLE
  5
A
330
0
100
AcDbSymbolTable
 70
     1
100
AcDbDimStyleTable
  0
DIMSTYLE
105
27
330
A
100
AcDbSymbolTableRecord
100
AcDbDimStyleTableRecord
  2
ISO-25
 70
     0
 41
2.5
 42
0.625
 43
3.75
 44
1.25
 73
     0
 74
     0
 77
     1
 78
     8
140
2.5
141
2.5
143
0.0393700787
147
0.625
171
     3
172
     1
178
     0
271
     2
272
     2
274
     3
278
    44
283
     0
284
     8
340
11
  0
ENDTAB
  0
TABLE
  2
BLOCK_RECORD
  5
1
330
0
100
AcDbSymbolTable
 70
     2
  0
BLOCK_RECORD
  5
1F
330
1
100
AcDbSymbolTableRecord
100
AcDbBlockTableRecord
  2
*Model_Space
340
22
  0
BLOCK_RECORD
  5
1B
330
1
100
AcDbSymbolTableRecord
100
AcDbBlockTableRecord
  2
*Paper_Space
340
1E
  0
BLOCK_RECORD
  5
23
330
1
100
AcDbSymbolTableRecord
100
AcDbBlockTableRecord
  2
*Paper_Space0
340
26
  0
BLOCK_RECORD
  5
8C
330
1
100
AcDbSymbolTableRecord
100
AcDbBlockTableRecord
  2
SW_CENTERMARKSYMBOL_0
340
0
102
{BLKREFS
331
97
102
}
  0
ENDTAB
  0
ENDSEC
  0
SECTION
  2
BLOCKS
  0
BLOCK
  5
20
330
1F
100
AcDbEntity
  8
0
100
AcDbBlockBegin
  2
*Model_Space
 70
     0
 10
0.0
 20
0.0
 30
0.0
  3
*Model_Space
  1

  0
ENDBLK
  5
21
330
1F
100
AcDbEntity
  8
0
100
AcDbBlockEnd
  0
BLOCK
  5
1C
330
1B
100
AcDbEntity
 67
     1
  8
0
100
AcDbBlockBegin
  2
*Paper_Space
 70
     0
 10
0.0
 20
0.0
 30
0.0
  3
*Paper_Space
  1

  0
ENDBLK
  5
1D
330
1B
100
AcDbEntity
 67
     1
  8
0
100
AcDbBlockEnd
  0
BLOCK
  5
24
330
23
100
AcDbEntity
  8
0
100
AcDbBlockBegin
  2
*Paper_Space0
 70
     0
 10
0.0
 20
0.0
 30
0.0
  3
*Paper_Space0
  1

  0
ENDBLK
  5
25
330
23
100
AcDbEntity
  8
0
100
AcDbBlockEnd
  0
BLOCK
  5
8D
330
8C
100
AcDbEntity
  8
0
100
AcDbBlockBegin
  2
SW_CENTERMARKSYMBOL_0
 70
     0
 10
0.0
 20
0.0
 30
0.0
  3
SW_CENTERMARKSYMBOL_0
  1

  0
LINE
  5
8F
330
8C
100
AcDbEntity
  8
FORMAT
 62
     0
100
AcDbLine
 10
0.0
 20
0.0
 30
0.0
 11
0.0
 21
2.5
 31
0.0
  0
LINE
  5
90
330
8C
100
AcDbEntity
  8
FORMAT
 62
     0
100
AcDbLine
 10
0.0
 20
0.0
 30
0.0
 11
-2.5
 21
0.0
 31
0.0
  0
LINE
  5
91
330
8C
100
AcDbEntity
  8
FORMAT
 62
     0
100
AcDbLine
 10
0.0
 20
0.0
 30
0.0
 11
0.0
 21
-2.5
 31
0.0
  0
LINE
  5
92
330
8C
100
AcDbEntity
  8
FORMAT
 62
     0
100
AcDbLine
 10
0.0
 20
0.0
 30
0.0
 11
2.5
 21
0.0
 31
0.0
  0
LINE
  5
93
330
8C
100
AcDbEntity
  8
FORMAT
 62
     0
100
AcDbLine
 10
0.0
 20
5.0
 30
0.0
 11
0.0
 21
18.5
 31
0.0
  0
LINE
  5
94
330
8C
100
AcDbEntity
  8
FORMAT
 62
     0
100
AcDbLine
 10
-5.0
 20
0.0
 30
0.0
 11
-18.5
 21
0.0
 31
0.0
  0
LINE
  5
95
330
8C
100
AcDbEntity
  8
FORMAT
 62
     0
100
AcDbLine
 10
0.0
 20
-5.0
 30
0.0
 11
0.0
 21
-18.5
 31
0.0
  0
LINE
  5
96
330
8C
100
AcDbEntity
  8
FORMAT
 62
     0
100
AcDbLine
 10
5.0
 20
0.0
 30
0.0
 11
18.5
 21
0.0
 31
0.0
  0
ENDBLK
  5
8E
330
8C
100
AcDbEntity
  8
0
100
AcDbBlockEnd
  0
ENDSEC
  0
SECTION
  2
ENTITIES
  0
CIRCLE
  5
83
330
1F
100
AcDbEntity
  8
0
  6
Continuous
 62
     7
370
    25
100
AcDbCircle
 10
139.8323425481
 20
108.7440552885
 30
0.0
 40
13.00000000000001
  0
CIRCLE
  5
84
330
1F
100
AcDbEntity
  8
0
  6
Continuous
 62
     7
370
    25
100
AcDbCircle
 10
139.8323425481
 20
108.7440552885
 30
0.0
 40
16.00000000000003
  0
CIRCLE
  5
85
330
1F
100
AcDbEntity
  8
0
  6
Continuous
 62
     7
370
    25
100
AcDbCircle
 10
139.8323425481
 20
108.7440552885
 30
0.0
 40
11.50000000000003
  0
LINE
  5
86
330
1F
100
AcDbEntity
  8
0
  6
Continuous
 62
     7
370
    25
100
AcDbLine
 10
139.8323425481
 20
82.1859429057
 30
0.0
 11
116.8323425481
 21
95.4649990971
 31
0.0
  0
LINE
  5
87
330
1F
100
AcDbEntity
  8
0
  6
Continuous
 62
     7
370
    25
100
AcDbLine
 10
116.8323425481
 20
95.4649990971
 30
0.0
 11
116.8323425481
 21
122.0231114798
 31
0.0
  0
LINE
  5
88
330
1F
100
AcDbEntity
  8
0
  6
Continuous
 62
     7
370
    25
100
AcDbLine
 10
116.8323425481
 20
122.0231114798
 30
0.0
 11
139.8323425481
 21
135.3021676712
 31
0.0
  0
LINE
  5
89
330
1F
100
AcDbEntity
  8
0
  6
Continuous
 62
     7
370
    25
100
AcDbLine
 10
139.8323425481
 20
135.3021676712
 30
0.0
 11
162.8323425481
 21
122.0231114798
 31
0.0
  0
LINE
  5
8A
330
1F
100
AcDbEntity
  8
0
  6
Continuous
 62
     7
370
    25
100
AcDbLine
 10
162.8323425481
 20
122.0231114798
 30
0.0
 11
162.8323425481
 21
95.4649990971
 31
0.0
  0
LINE
  5
8B
330
1F
100
AcDbEntity
  8
0
  6
Continuous
 62
     7
370
    25
100
AcDbLine
 10
162.8323425481
 20
95.4649990971
 30
0.0
 11
139.8323425481
 21
82.1859429057
 31
0.0
  0
INSERT
  5
97
330
1F
100
AcDbEntity
  8
FORMAT
 62
     7
100
AcDbBlockReference
  2
SW_CENTERMARKSYMBOL_0
 10
139.8323425481
 20
108.7440552885
 30
0.0
  0
LINE
  5
98
330
1F
100
AcDbEntity
  8
0
  6
Continuous
 62
     7
370
    25
100
AcDbLine
 10
156.4323425481
 20
140.1870325164
 30
0.0
 11
156.4323425481
 21
140.3870325164
 31
0.0
  0
LINE
  5
99
330
1F
100
AcDbEntity
  8
0
  6
Continuous
 62
     7
370
    25
100
AcDbLine
 10
123.2323425481
 20
140.3870325164
 30
0.0
 11
123.2323425481
 21
140.1870325164
 31
0.0
  0
LINE
  5
9A
330
1F
100
AcDbEntity
  8
0
  6
Continuous
 62
     7
370
    25
100
AcDbLine
 10
156.4323425481
 20
140.3870325164
 30
0.0
 11
154.7002917405
 21
141.3870325164
 31
0.0
  0
LINE
  5
9B
330
1F
100
AcDbEntity
  8
0
  6
Continuous
 62
     7
370
    25
100
AcDbLine
 10
124.9643933556
 20
141.3870325164
 30
0.0
 11
123.2323425481
 21
140.3870325164
 31
0.0
  0
LINE
  5
9C
330
1F
100
AcDbEntity
  8
0
  6
Continuous
 62
     7
370
    25
100
AcDbLine
 10
123.2323425481
 20
142.3870325164
 30
0.0
 11
124.9643933556
 21
141.3870325164
 31
0.0
  0
LINE
  5
9D
330
1F
100
AcDbEntity
  8
0
  6
Continuous
 62
     7
370
    25
100
AcDbLine
 10
154.7002917405
 20
141.3870325164
 30
0.0
 11
156.4323425481
 21
142.3870325164
 31
0.0
  0
LINE
  5
9E
330
1F
100
AcDbEntity
  8
0
  6
Continuous
 62
     7
370
    25
100
AcDbLine
 10
156.4323425481
 20
142.3870325164
 30
0.0
 11
154.7002917405
 21
143.3870325164
 31
0.0
  0
LINE
  5
9F
330
1F
100
AcDbEntity
  8
0
  6
Continuous
 62
     7
370
    25
100
AcDbLine
 10
124.9643933556
 20
143.3870325164
 30
0.0
 11
123.2323425481
 21
142.3870325164
 31
0.0
  0
LINE
  5
A0
330
1F
100
AcDbEntity
  8
0
  6
Continuous
 62
     7
370
    25
100
AcDbLine
 10
123.2323425481
 20
144.3870325164
 30
0.0
 11
124.9643933556
 21
143.3870325164
 31
0.0
  0
LINE
  5
A1
330
1F
100
AcDbEntity
  8
0
  6
Continuous
 62
     7
370
    25
100
AcDbLine
 10
154.7002917405
 20
143.3870325164
 30
0.0
 11
156.4323425481
 21
144.3870325164
 31
0.0
  0
LINE
  5
A2
330
1F
100
AcDbEntity
  8
0
  6
Continuous
 62
     7
370
    25
100
AcDbLine
 10
156.4323425481
 20
144.3870325164
 30
0.0
 11
154.7002917405
 21
145.3870325164
 31
0.0
  0
LINE
  5
A3
330
1F
100
AcDbEntity
  8
0
  6
Continuous
 62
     7
370
    25
100
AcDbLine
 10
124.9643933556
 20
145.3870325164
 30
0.0
 11
123.2323425481
 21
144.3870325164
 31
0.0
  0
LINE
  5
A4
330
1F
100
AcDbEntity
  8
0
  6
Continuous
 62
     7
370
    25
100
AcDbLine
 10
123.2323425481
 20
146.3870325164
 30
0.0
 11
124.9643933556
 21
145.3870325164
 31
0.0
  0
LINE
  5
A5
330
1F
100
AcDbEntity
  8
0
  6
Continuous
 62
     7
370
    25
100
AcDbLine
 10
154.7002917405
 20
145.3870325164
 30
0.0
 11
156.4323425481
 21
146.3870325164
 31
0.0
  0
LINE
  5
A6
330
1F
100
AcDbEntity
  8
0
  6
Continuous
 62
     7
370
    25
100
AcDbLine
 10
156.4323425481
 20
146.3870325164
 30
0.0
 11
156.4323425481
 21
160.1870325164
 31
0.0
  0
LINE
  5
A7
330
1F
100
AcDbEntity
  8
0
  6
Continuous
 62
     7
370
    25
100
AcDbLine
 10
123.2323425481
 20
160.1870325164
 30
0.0
 11
123.2323425481
 21
146.3870325164
 31
0.0
  0
LINE
  5
A8
330
1F
100
AcDbEntity
  8
0
  6
Continuous
 62
     7
370
    25
100
AcDbLine
 10
155.8323425481
 20
175.1870325164
 30
0.0
 11
155.8323425481
 21
213.6870325164
 31
0.0
  0
LINE
  5
A9
330
1F
100
AcDbEntity
  8
0
  6
Continuous
 62
     7
370
    25
100
AcDbLine
 10
123.8323425481
 20
213.6870325164
 30
0.0
 11
123.8323425481
 21
175.1870325164
 31
0.0
  0
LINE
  5
AA
330
1F
100
AcDbEntity
  8
0
  6
Continuous
 62
     7
370
    25
100
AcDbLine
 10
139.8323425481
 20
175.1870325164
 30
0.0
 11
139.8323425481
 21
160.1870325164
 31
0.0
  0
LINE
  5
AB
330
1F
100
AcDbEntity
  8
0
  6
Continuous
 62
     7
370
    25
100
AcDbLine
 10
162.8323425481
 20
175.1870325164
 30
0.0
 11
139.8323425481
 21
175.1870325164
 31
0.0
  0
LINE
  5
AC
330
1F
100
AcDbEntity
  8
0
  6
Continuous
 62
     7
370
    25
100
AcDbLine
 10
162.8323425481
 20
175.1870325164
 30
0.0
 11
162.8323425481
 21
160.1870325164
 31
0.0
  0
LINE
  5
AD
330
1F
100
AcDbEntity
  8
0
  6
Continuous
 62
     7
370
    25
100
AcDbLine
 10
139.8323425481
 20
160.1870325164
 30
0.0
 11
162.8323425481
 21
160.1870325164
 31
0.0
  0
LINE
  5
AE
330
1F
100
AcDbEntity
  8
0
  6
Continuous
 62
     7
370
    25
100
AcDbLine
 10
116.8323425481
 20
175.1870325164
 30
0.0
 11
116.8323425481
 21
160.1870325164
 31
0.0
  0
LINE
  5
AF
330
1F
100
AcDbEntity
  8
0
  6
Continuous
 62
     7
370
    25
100
AcDbLine
 10
139.8323425481
 20
175.1870325164
 30
0.0
 11
116.8323425481
 21
175.1870325164
 31
0.0
  0
LINE
  5
B0
330
1F
100
AcDbEntity
  8
0
  6
Continuous
 62
     7
370
    25
100
AcDbLine
 10
116.8323425481
 20
160.1870325164
 30
0.0
 11
139.8323425481
 21
160.1870325164
 31
0.0
  0
LINE
  5
B1
330
1F
100
AcDbEntity
  8
0
  6
Continuous
 62
     7
370
    25
100
AcDbLine
 10
156.4323425481
 20
140.3870325164
 30
0.0
 11
123.2323425481
 21
140.3870325164
 31
0.0
  0
LINE
  5
B2
330
1F
100
AcDbEntity
  8
0
  6
Continuous
 62
     7
370
    25
100
AcDbLine
 10
156.4323425481
 20
140.1870325164
 30
0.0
 11
123.2323425481
 21
140.1870325164
 31
0.0
  0
LINE
  5
B3
330
1F
100
AcDbEntity
  8
0
  6
Continuous
 62
     7
370
    25
100
AcDbLine
 10
154.7002917405
 20
141.3870325164
 30
0.0
 11
124.9643933556
 21
141.3870325164
 31
0.0
  0
LINE
  5
B4
330
1F
100
AcDbEntity
  8
0
  6
Continuous
 62
     7
370
    25
100
AcDbLine
 10
156.4323425481
 20
142.3870325164
 30
0.0
 11
123.2323425481
 21
142.3870325164
 31
0.0
  0
LINE
  5
B5
330
1F
100
AcDbEntity
  8
0
  6
Continuous
 62
     7
370
    25
100
AcDbLine
 10
154.7002917405
 20
143.3870325164
 30
0.0
 11
124.9643933556
 21
143.3870325164
 31
0.0
  0
LINE
  5
B6
330
1F
100
AcDbEntity
  8
0
  6
Continuous
 62
     7
370
    25
100
AcDbLine
 10
156.4323425481
 20
144.3870325164
 30
0.0
 11
123.2323425481
 21
144.3870325164
 31
0.0
  0
LINE
  5
B7
330
1F
100
AcDbEntity
  8
0
  6
Continuous
 62
     7
370
    25
100
AcDbLine
 10
154.7002917405
 20
145.3870325164
 30
0.0
 11
124.9643933556
 21
145.3870325164
 31
0.0
  0
LINE
  5
B8
330
1F
100
AcDbEntity
  8
0
  6
Continuous
 62
     7
370
    25
100
AcDbLine
 10
156.4323425481
 20
146.3870325164
 30
0.0
 11
123.2323425481
 21
146.3870325164
 31
0.0
  0
LINE
  5
B9
330
1F
100
AcDbEntity
  8
0
  6
Continuous
 62
     7
370
    25
100
AcDbLine
 10
155.8323425481
 20
213.6870325164
 30
0.0
 11
123.8323425481
 21
213.6870325164
 31
0.0
  0
LINE
  5
BA
330
1F
100
AcDbEntity
  8
0
  6
Continuous
 62
     7
370
    25
100
AcDbLine
 10
193.319244041
 20
92.1440552885
 30
0.0
 11
194.319244041
 21
93.876106096
 31
0.0
  0
LINE
  5
BB
330
1F
100
AcDbEntity
  8
0
  6
Continuous
 62
     7
370
    25
100
AcDbLine
 10
194.319244041
 20
123.6120044809
 30
0.0
 11
193.319244041
 21
125.3440552885
 31
0.0
  0
LINE
  5
BC
330
1F
100
AcDbEntity
  8
0
  6
Continuous
 62
     7
370
    25
100
AcDbLine
 10
193.119244041
 20
92.1440552885
 30
0.0
 11
193.319244041
 21
92.1440552885
 31
0.0
  0
LINE
  5
BD
330
1F
100
AcDbEntity
  8
0
  6
Continuous
 62
     7
370
    25
100
AcDbLine
 10
193.319244041
 20
125.3440552885
 30
0.0
 11
193.119244041
 21
125.3440552885
 31
0.0
  0
LINE
  5
BE
330
1F
100
AcDbEntity
  8
0
  6
Continuous
 62
     7
370
    25
100
AcDbLine
 10
195.319244041
 20
125.3440552885
 30
0.0
 11
194.319244041
 21
123.6120044809
 31
0.0
  0
LINE
  5
BF
330
1F
100
AcDbEntity
  8
0
  6
Continuous
 62
     7
370
    25
100
AcDbLine
 10
194.319244041
 20
93.876106096
 30
0.0
 11
195.319244041
 21
92.1440552885
 31
0.0
  0
LINE
  5
C0
330
1F
100
AcDbEntity
  8
0
  6
Continuous
 62
     7
370
    25
100
AcDbLine
 10
195.319244041
 20
92.1440552885
 30
0.0
 11
196.319244041
 21
93.876106096
 31
0.0
  0
LINE
  5
C1
330
1F
100
AcDbEntity
  8
0
  6
Continuous
 62
     7
370
    25
100
AcDbLine
 10
196.319244041
 20
123.6120044809
 30
0.0
 11
195.319244041
 21
125.3440552885
 31
0.0
  0
LINE
  5
C2
330
1F
100
AcDbEntity
  8
0
  6
Continuous
 62
     7
370
    25
100
AcDbLine
 10
197.319244041
 20
125.3440552885
 30
0.0
 11
196.319244041
 21
123.6120044809
 31
0.0
  0
LINE
  5
C3
330
1F
100
AcDbEntity
  8
0
  6
Continuous
 62
     7
370
    25
100
AcDbLine
 10
196.319244041
 20
93.876106096
 30
0.0
 11
197.319244041
 21
92.1440552885
 31
0.0
  0
LINE
  5
C4
330
1F
100
AcDbEntity
  8
0
  6
Continuous
 62
     7
370
    25
100
AcDbLine
 10
197.319244041
 20
92.1440552885
 30
0.0
 11
198.319244041
 21
93.876106096
 31
0.0
  0
LINE
  5
C5
330
1F
100
AcDbEntity
  8
0
  6
Continuous
 62
     7
370
    25
100
AcDbLine
 10
198.319244041
 20
123.6120044809
 30
0.0
 11
197.319244041
 21
125.3440552885
 31
0.0
  0
LINE
  5
C6
330
1F
100
AcDbEntity
  8
0
  6
Continuous
 62
     7
370
    25
100
AcDbLine
 10
199.319244041
 20
125.3440552885
 30
0.0
 11
198.319244041
 21
123.6120044809
 31
0.0
  0
LINE
  5
C7
330
1F
100
AcDbEntity
  8
0
  6
Continuous
 62
     7
370
    25
100
AcDbLine
 10
198.319244041
 20
93.876106096
 30
0.0
 11
199.319244041
 21
92.1440552885
 31
0.0
  0
LINE
  5
C8
330
1F
100
AcDbEntity
  8
0
  6
Continuous
 62
     7
370
    25
100
AcDbLine
 10
199.319244041
 20
92.1440552885
 30
0.0
 11
213.119244041
 21
92.1440552885
 31
0.0
  0
LINE
  5
C9
330
1F
100
AcDbEntity
  8
0
  6
Continuous
 62
     7
370
    25
100
AcDbLine
 10
213.119244041
 20
125.3440552885
 30
0.0
 11
199.319244041
 21
125.3440552885
 31
0.0
  0
LINE
  5
CA
330
1F
100
AcDbEntity
  8
0
  6
Continuous
 62
     7
370
    25
100
AcDbLine
 10
228.119244041
 20
92.7440552885
 30
0.0
 11
266.619244041
 21
92.7440552885
 31
0.0
  0
LINE
  5
CB
330
1F
100
AcDbEntity
  8
0
  6
Continuous
 62
     7
370
    25
100
AcDbLine
 10
266.619244041
 20
124.7440552885
 30
0.0
 11
228.119244041
 21
124.7440552885
 31
0.0
  0
LINE
  5
CC
330
1F
100
AcDbEntity
  8
0
  6
Continuous
 62
     7
370
    25
100
AcDbLine
 10
228.119244041
 20
95.4649990971
 30
0.0
 11
213.119244041
 21
95.4649990971
 31
0.0
  0
LINE
  5
CD
330
1F
100
AcDbEntity
  8
0
  6
Continuous
 62
     7
370
    25
100
AcDbLine
 10
228.119244041
 20
82.1859429057
 30
0.0
 11
228.119244041
 21
95.4649990971
 31
0.0
  0
LINE
  5
CE
330
1F
100
AcDbEntity
  8
0
  6
Continuous
 62
     7
370
    25
100
AcDbLine
 10
228.119244041
 20
82.1859429057
 30
0.0
 11
213.119244041
 21
82.1859429057
 31
0.0
  0
LINE
  5
CF
330
1F
100
AcDbEntity
  8
0
  6
Continuous
 62
     7
370
    25
100
AcDbLine
 10
213.119244041
 20
95.4649990971
 30
0.0
 11
213.119244041
 21
82.1859429057
 31
0.0
  0
LINE
  5
D0
330
1F
100
AcDbEntity
  8
0
  6
Continuous
 62
     7
370
    25
100
AcDbLine
 10
228.119244041
 20
122.0231114798
 30
0.0
 11
213.119244041
 21
122.0231114798
 31
0.0
  0
LINE
  5
D1
330
1F
100
AcDbEntity
  8
0
  6
Continuous
 62
     7
370
    25
100
AcDbLine
 10
228.119244041
 20
95.4649990971
 30
0.0
 11
228.119244041
 21
122.0231114798
 31
0.0
  0
LINE
  5
D2
330
1F
100
AcDbEntity
  8
0
  6
Continuous
 62
     7
370
    25
100
AcDbLine
 10
213.119244041
 20
122.0231114798
 30
0.0
 11
213.119244041
 21
95.4649990971
 31
0.0
  0
LINE
  5
D3
330
1F
100
AcDbEntity
  8
0
  6
Continuous
 62
     7
370
    25
100
AcDbLine
 10
228.119244041
 20
135.3021676712
 30
0.0
 11
213.119244041
 21
135.3021676712
 31
0.0
  0
LINE
  5
D4
330
1F
100
AcDbEntity
  8
0
  6
Continuous
 62
     7
370
    25
100
AcDbLine
 10
228.119244041
 20
122.0231114798
 30
0.0
 11
228.119244041
 21
135.3021676712
 31
0.0
  0
LINE
  5
D5
330
1F
100
AcDbEntity
  8
0
  6
Continuous
 62
     7
370
    25
100
AcDbLine
 10
213.119244041
 20
135.3021676712
 30
0.0
 11
213.119244041
 21
122.0231114798
 31
0.0
  0
LINE
  5
D6
330
1F
100
AcDbEntity
  8
0
  6
Continuous
 62
     7
370
    25
100
AcDbLine
 10
194.319244041
 20
108.7440552885
 30
0.0
 11
194.319244041
 21
123.6120044809
 31
0.0
  0
LINE
  5
D7
330
1F
100
AcDbEntity
  8
0
  6
Continuous
 62
     7
370
    25
100
AcDbLine
 10
194.319244041
 20
93.876106096
 30
0.0
 11
194.319244041
 21
108.7440552885
 31
0.0
  0
LINE
  5
D8
330
1F
100
AcDbEntity
  8
0
  6
Continuous
 62
     7
370
    25
100
AcDbLine
 10
193.319244041
 20
108.7440552885
 30
0.0
 11
193.319244041
 21
125.3440552885
 31
0.0
  0
LINE
  5
D9
330
1F
100
AcDbEntity
  8
0
  6
Continuous
 62
     7
370
    25
100
AcDbLine
 10
193.319244041
 20
92.1440552885
 30
0.0
 11
193.319244041
 21
108.7440552885
 31
0.0
  0
LINE
  5
DA
330
1F
100
AcDbEntity
  8
0
  6
Continuous
 62
     7
370
    25
100
AcDbLine
 10
193.119244041
 20
108.7440552885
 30
0.0
 11
193.119244041
 21
125.3440552885
 31
0.0
  0
LINE
  5
DB
330
1F
100
AcDbEntity
  8
0
  6
Continuous
 62
     7
370
    25
100
AcDbLine
 10
193.119244041
 20
92.1440552885
 30
0.0
 11
193.119244041
 21
108.7440552885
 31
0.0
  0
LINE
  5
DC
330
1F
100
AcDbEntity
  8
0
  6
Continuous
 62
     7
370
    25
100
AcDbLine
 10
195.319244041
 20
108.7440552885
 30
0.0
 11
195.319244041
 21
125.3440552885
 31
0.0
  0
LINE
  5
DD
330
1F
100
AcDbEntity
  8
0
  6
Continuous
 62
     7
370
    25
100
AcDbLine
 10
195.319244041
 20
92.1440552885
 30
0.0
 11
195.319244041
 21
108.7440552885
 31
0.0
  0
LINE
  5
DE
330
1F
100
AcDbEntity
  8
0
  6
Continuous
 62
     7
370
    25
100
AcDbLine
 10
196.319244041
 20
108.7440552885
 30
0.0
 11
196.319244041
 21
123.6120044809
 31
0.0
  0
LINE
  5
DF
330
1F
100
AcDbEntity
  8
0
  6
Continuous
 62
     7
370
    25
100
AcDbLine
 10
196.319244041
 20
93.876106096
 30
0.0
 11
196.319244041
 21
108.7440552885
 31
0.0
  0
LINE
  5
E0
330
1F
100
AcDbEntity
  8
0
  6
Continuous
 62
     7
370
    25
100
AcDbLine
 10
197.319244041
 20
108.7440552885
 30
0.0
 11
197.319244041
 21
125.3440552885
 31
0.0
  0
LINE
  5
E1
330
1F
100
AcDbEntity
  8
0
  6
Continuous
 62
     7
370
    25
100
AcDbLine
 10
197.319244041
 20
92.1440552885
 30
0.0
 11
197.319244041
 21
108.7440552885
 31
0.0
  0
LINE
  5
E2
330
1F
100
AcDbEntity
  8
0
  6
Continuous
 62
     7
370
    25
100
AcDbLine
 10
198.319244041
 20
108.7440552885
 30
0.0
 11
198.319244041
 21
123.6120044809
 31
0.0
  0
LINE
  5
E3
330
1F
100
AcDbEntity
  8
0
  6
Continuous
 62
     7
370
    25
100
AcDbLine
 10
198.319244041
 20
93.876106096
 30
0.0
 11
198.319244041
 21
108.7440552885
 31
0.0
  0
LINE
  5
E4
330
1F
100
AcDbEntity
  8
0
  6
Continuous
 62
     7
370
    25
100
AcDbLine
 10
199.319244041
 20
108.7440552885
 30
0.0
 11
199.319244041
 21
125.3440552885
 31
0.0
  0
LINE
  5
E5
330
1F
100
AcDbEntity
  8
0
  6
Continuous
 62
     7
370
    25
100
AcDbLine
 10
199.319244041
 20
92.1440552885
 30
0.0
 11
199.319244041
 21
108.7440552885
 31
0.0
  0
LINE
  5
E6
330
1F
100
AcDbEntity
  8
0
  6
Continuous
 62
     7
370
    25
100
AcDbLine
 10
266.619244041
 20
108.7440552885
 30
0.0
 11
266.619244041
 21
124.7440552885
 31
0.0
  0
LINE
  5
E7
330
1F
100
AcDbEntity
  8
0
  6
Continuous
 62
     7
370
    25
100
AcDbLine
 10
266.619244041
 20
92.7440552885
 30
0.0
 11
266.619244041
 21
108.7440552885
 31
0.0
  0
LINE
  5
E8
330
1F
100
AcDbEntity
  8
0
  6
Continuous
 62
     7
370
    25
100
AcDbLine
 10
86.6317308965
 20
125.3440552885
 30
0.0
 11
86.4317308965
 21
125.3440552885
 31
0.0
  0
LINE
  5
E9
330
1F
100
AcDbEntity
  8
0
  6
Continuous
 62
     7
370
    25
100
AcDbLine
 10
86.4317308965
 20
92.1440552885
 30
0.0
 11
86.6317308965
 21
92.1440552885
 31
0.0
  0
LINE
  5
EA
330
1F
100
AcDbEntity
  8
0
  6
Continuous
 62
     7
370
    25
100
AcDbLine
 10
86.4317308965
 20
125.3440552885
 30
0.0
 11
85.4317308965
 21
123.6120044809
 31
0.0
  0
LINE
  5
EB
330
1F
100
AcDbEntity
  8
0
  6
Continuous
 62
     7
370
    25
100
AcDbLine
 10
85.4317308965
 20
93.876106096
 30
0.0
 11
86.4317308965
 21
92.1440552885
 31
0.0
  0
LINE
  5
EC
330
1F
100
AcDbEntity
  8
0
  6
Continuous
 62
     7
370
    25
100
AcDbLine
 10
84.4317308965
 20
92.1440552885
 30
0.0
 11
85.4317308965
 21
93.876106096
 31
0.0
  0
LINE
  5
ED
330
1F
100
AcDbEntity
  8
0
  6
Continuous
 62
     7
370
    25
100
AcDbLine
 10
85.4317308965
 20
123.6120044809
 30
0.0
 11
84.4317308965
 21
125.3440552885
 31
0.0
  0
LINE
  5
EE
330
1F
100
AcDbEntity
  8
0
  6
Continuous
 62
     7
370
    25
100
AcDbLine
 10
84.4317308965
 20
125.3440552885
 30
0.0
 11
83.4317308965
 21
123.6120044809
 31
0.0
  0
LINE
  5
EF
330
1F
100
AcDbEntity
  8
0
  6
Continuous
 62
     7
370
    25
100
AcDbLine
 10
83.4317308965
 20
93.876106096
 30
0.0
 11
84.4317308965
 21
92.1440552885
 31
0.0
  0
LINE
  5
F0
330
1F
100
AcDbEntity
  8
0
  6
Continuous
 62
     7
370
    25
100
AcDbLine
 10
82.4317308965
 20
92.1440552885
 30
0.0
 11
83.4317308965
 21
93.876106096
 31
0.0
  0
LINE
  5
F1
330
1F
100
AcDbEntity
  8
0
  6
Continuous
 62
     7
370
    25
100
AcDbLine
 10
83.4317308965
 20
123.6120044809
 30
0.0
 11
82.4317308965
 21
125.3440552885
 31
0.0
  0
LINE
  5
F2
330
1F
100
AcDbEntity
  8
0
  6
Continuous
 62
     7
370
    25
100
AcDbLine
 10
82.4317308965
 20
125.3440552885
 30
0.0
 11
81.4317308965
 21
123.6120044809
 31
0.0
  0
LINE
  5
F3
330
1F
100
AcDbEntity
  8
0
  6
Continuous
 62
     7
370
    25
100
AcDbLine
 10
81.4317308965
 20
93.876106096
 30
0.0
 11
82.4317308965
 21
92.1440552885
 31
0.0
  0
LINE
  5
F4
330
1F
100
AcDbEntity
  8
0
  6
Continuous
 62
     7
370
    25
100
AcDbLine
 10
80.4317308965
 20
92.1440552885
 30
0.0
 11
81.4317308965
 21
93.876106096
 31
0.0
  0
LINE
  5
F5
330
1F
100
AcDbEntity
  8
0
  6
Continuous
 62
     7
370
    25
100
AcDbLine
 10
81.4317308965
 20
123.6120044809
 30
0.0
 11
80.4317308965
 21
125.3440552885
 31
0.0
  0
LINE
  5
F6
330
1F
100
AcDbEntity
  8
0
  6
Continuous
 62
     7
370
    25
100
AcDbLine
 10
80.4317308965
 20
125.3440552885
 30
0.0
 11
66.6317308965
 21
125.3440552885
 31
0.0
  0
LINE
  5
F7
330
1F
100
AcDbEntity
  8
0
  6
Continuous
 62
     7
370
    25
100
AcDbLine
 10
66.6317308965
 20
92.1440552885
 30
0.0
 11
80.4317308965
 21
92.1440552885
 31
0.0
  0
LINE
  5
F8
330
1F
100
AcDbEntity
  8
0
  6
Continuous
 62
     7
370
    25
100
AcDbLine
 10
51.6317308965
 20
124.7440552885
 30
0.0
 11
13.1317308965
 21
124.7440552885
 31
0.0
  0
LINE
  5
F9
330
1F
100
AcDbEntity
  8
0
  6
Continuous
 62
     7
370
    25
100
AcDbLine
 10
13.1317308965
 20
92.7440552885
 30
0.0
 11
51.6317308965
 21
92.7440552885
 31
0.0
  0
LINE
  5
FA
330
1F
100
AcDbEntity
  8
0
  6
Continuous
 62
     7
370
    25
100
AcDbLine
 10
51.6317308965
 20
95.4649990971
 30
0.0
 11
66.6317308965
 21
95.4649990971
 31
0.0
  0
LINE
  5
FB
330
1F
100
AcDbEntity
  8
0
  6
Continuous
 62
     7
370
    25
100
AcDbLine
 10
51.6317308965
 20
122.0231114798
 30
0.0
 11
51.6317308965
 21
95.4649990971
 31
0.0
  0
LINE
  5
FC
330
1F
100
AcDbEntity
  8
0
  6
Continuous
 62
     7
370
    25
100
AcDbLine
 10
51.6317308965
 20
122.0231114798
 30
0.0
 11
66.6317308965
 21
122.0231114798
 31
0.0
  0
LINE
  5
FD
330
1F
100
AcDbEntity
  8
0
  6
Continuous
 62
     7
370
    25
100
AcDbLine
 10
66.6317308965
 20
95.4649990971
 30
0.0
 11
66.6317308965
 21
122.0231114798
 31
0.0
  0
LINE
  5
FE
330
1F
100
AcDbEntity
  8
0
  6
Continuous
 62
     7
370
    25
100
AcDbLine
 10
51.6317308965
 20
82.1859429057
 30
0.0
 11
66.6317308965
 21
82.1859429057
 31
0.0
  0
LINE
  5
FF
330
1F
100
AcDbEntity
  8
0
  6
Continuous
 62
     7
370
    25
100
AcDbLine
 10
51.6317308965
 20
95.4649990971
 30
0.0
 11
51.6317308965
 21
82.1859429057
 31
0.0
  0
LINE
  5
100
330
1F
100
AcDbEntity
  8
0
  6
Continuous
 62
     7
370
    25
100
AcDbLine
 10
66.6317308965
 20
82.1859429057
 30
0.0
 11
66.6317308965
 21
95.4649990971
 31
0.0
  0
LINE
  5
101
330
1F
100
AcDbEntity
  8
0
  6
Continuous
 62
     7
370
    25
100
AcDbLine
 10
51.6317308965
 20
135.3021676712
 30
0.0
 11
51.6317308965
 21
122.0231114798
 31
0.0
  0
LINE
  5
102
330
1F
100
AcDbEntity
  8
0
  6
Continuous
 62
     7
370
    25
100
AcDbLine
 10
51.6317308965
 20
135.3021676712
 30
0.0
 11
66.6317308965
 21
135.3021676712
 31
0.0
  0
LINE
  5
103
330
1F
100
AcDbEntity
  8
0
  6
Continuous
 62
     7
370
    25
100
AcDbLine
 10
66.6317308965
 20
122.0231114798
 30
0.0
 11
66.6317308965
 21
135.3021676712
 31
0.0
  0
LINE
  5
104
330
1F
100
AcDbEntity
  8
0
  6
Continuous
 62
     7
370
    25
100
AcDbLine
 10
86.4317308965
 20
125.3440552885
 30
0.0
 11
86.4317308965
 21
92.1440552885
 31
0.0
  0
LINE
  5
105
330
1F
100
AcDbEntity
  8
0
  6
Continuous
 62
     7
370
    25
100
AcDbLine
 10
86.6317308965
 20
125.3440552885
 30
0.0
 11
86.6317308965
 21
92.1440552885
 31
0.0
  0
LINE
  5
106
330
1F
100
AcDbEntity
  8
0
  6
Continuous
 62
     7
370
    25
100
AcDbLine
 10
85.4317308965
 20
123.6120044809
 30
0.0
 11
85.4317308965
 21
93.876106096
 31
0.0
  0
LINE
  5
107
330
1F
100
AcDbEntity
  8
0
  6
Continuous
 62
     7
370
    25
100
AcDbLine
 10
84.4317308965
 20
125.3440552885
 30
0.0
 11
84.4317308965
 21
92.1440552885
 31
0.0
  0
LINE
  5
108
330
1F
100
AcDbEntity
  8
0
  6
Continuous
 62
     7
370
    25
100
AcDbLine
 10
83.4317308965
 20
123.6120044809
 30
0.0
 11
83.4317308965
 21
93.876106096
 31
0.0
  0
LINE
  5
109
330
1F
100
AcDbEntity
  8
0
  6
Continuous
 62
     7
370
    25
100
AcDbLine
 10
82.4317308965
 20
125.3440552885
 30
0.0
 11
82.4317308965
 21
92.1440552885
 31
0.0
  0
LINE
  5
10A
330
1F
100
AcDbEntity
  8
0
  6
Continuous
 62
     7
370
    25
100
AcDbLine
 10
81.4317308965
 20
123.6120044809
 30
0.0
 11
81.4317308965
 21
93.876106096
 31
0.0
  0
LINE
  5
10B
330
1F
100
AcDbEntity
  8
0
  6
Continuous
 62
     7
370
    25
100
AcDbLine
 10
80.4317308965
 20
125.3440552885
 30
0.0
 11
80.4317308965
 21
92.1440552885
 31
0.0
  0
LINE
  5
10C
330
1F
100
AcDbEntity
  8
0
  6
Continuous
 62
     7
370
    25
100
AcDbLine
 10
13.1317308965
 20
124.7440552885
 30
0.0
 11
13.1317308965
 21
92.7440552885
 31
0.0
  0
LINE
  5
10D
330
1F
100
AcDbEntity
  8
0
  6
Continuous
 62
     7
370
    25
100
AcDbLine
 10
231.2598438233
 20
52.3854619142
 30
0.0
 11
204.0362327476
 21
68.1013180668
 31
0.0
  0
LINE
  5
10E
330
1F
100
AcDbEntity
  8
0
  6
Continuous
 62
     7
370
    25
100
AcDbLine
 10
188.0375330254
 20
40.3877544706
 30
0.0
 11
215.2611441011
 21
24.671898318
 31
0.0
  0
LINE
  5
10F
330
1F
100
AcDbEntity
  8
0
  6
Continuous
 62
     7
370
    25
100
AcDbLine
 10
251.9244947413
 20
41.1488144214
 30
0.0
 11
250.1305516473
 21
42.1844357257
 31
0.0
  0
LINE
  5
110
330
1F
100
AcDbEntity
  8
0
  6
Continuous
 62
     7
370
    25
100
AcDbLine
 10
235.2497910341
 20
12.4398965057
 30
0.0
 11
235.3258437795
 21
12.3959921903
 31
0.0
  0
LINE
  5
111
330
1F
100
AcDbEntity
  8
0
  6
Continuous
 62
     7
370
    25
100
AcDbLine
 10
256.3085567846
 20
38.6179492747
 30
0.0
 11
256.1671354284
 21
38.6995900859
 31
0.0
  0
LINE
  5
112
330
1F
100
AcDbEntity
  8
0
  6
Continuous
 62
     7
370
    25
100
AcDbLine
 10
239.5684844666
 20
9.9467678549
 30
0.0
 11
239.7099058229
 21
9.8651270437
 31
0.0
  0
LWPOLYLINE
  5
113
330
1F
100
AcDbEntity
  8
0
  6
Continuous
 62
     7
370
    25
100
AcDbPolyline
 90
       86
 70
   128
 43
0.0
 10
186.8444947311
 20
48.9378835418
 10
186.8695975493
 20
49.736321926
 10
186.9447689011
 20
50.5593826136
 10
187.0695982266
 20
51.4025703326
 10
187.2434037513
 20
52.2612798839
 10
187.4652362097
 20
53.1308212939
 10
187.7338840298
 20
54.006445429
 10
188.0478799505
 20
54.8833699336
 10
188.4055090348
 20
55.7568053502
 10
188.8048180368
 20
56.6219812776
 10
189.2436260691
 20
57.4741724247
 10
189.7195365144
 20
58.3087244191
 10
190.229950115
 20
59.1210792272
 10
190.7720791686
 20
59.9068000486
 10
191.3429627545
 20
60.6615955489
 10
191.9394829045
 20
61.3813432966
 10
192.5583816322
 20
62.0621122791
 10
193.1962787276
 20
62.7001843724
 10
193.8496902179
 20
63.2920746479
 10
194.515047396
 20
63.8345504062
 10
195.1887163119
 20
64.3246488329
 10
195.8670176194
 20
64.7596931802
 10
196.5462466722
 20
65.1373073868
 10
197.2226937566
 20
65.4554290549
 10
197.8926643532
 20
65.7123207142
 10
198.552499315
 20
65.9065793116
 10
199.1985948522
 20
66.0371438739
 10
199.8274222151
 20
66.1033013028
 10
200.4355469666
 20
66.1046902694
 10
201.0196477402
 20
66.0413031876
 10
201.57653438
 20
65.9134862557
 10
202.1031653644
 20
65.7219375654
 10
202.5966644175
 20
65.4677032893
 10
203.0543362187
 20
65.1521719668
 10
203.4736811231
 20
64.7770669205
 10
203.8524088145
 20
64.3444368442
 10
204.1884508135
 20
63.8566446134
 10
204.4799717752
 20
63.3163543799
 10
204.7253795132
 20
62.7265170218
 10
204.9233336956
 20
62.0903540261
 10
205.0727531652
 20
61.4113398945
 10
205.1728218447
 20
60.6931831668
 10
205.2229931937
 20
59.9398061659
 10
205.2229931937
 20
59.1553235758
 10
205.1728218447
 20
58.3440199684
 10
205.0727531652
 20
57.5103264025
 10
204.9233336956
 20
56.6587962235
 10
204.7253795132
 20
55.7940801937
 10
204.4799717752
 20
54.9209010924
 10
204.1884508135
 20
54.044027921
 10
203.8524088145
 20
53.1682498566
 10
203.4736811231
 20
52.2983500954
 10
203.0543362187
 20
51.4390797281
 10
202.5966644175
 20
50.5951317917
 10
202.1031653644
 20
49.771115637
 10
201.57653438
 20
48.9715317545
 10
201.0196477402
 20
48.2007471942
 10
200.4355469666
 20
47.4629717139
 10
199.8274222151
 20
46.7622347876
 10
199.1985948522
 20
46.1023635974
 10
198.552499315
 20
45.4869621308
 10
197.8926643532
 20
44.9193914973
 10
197.2226937566
 20
44.4027515708
 10
196.5462466722
 20
43.9398640595
 10
195.8670176194
 20
43.5332570944
 10
195.1887163119
 20
43.1851514218
 10
194.515047396
 20
42.8974482742
 10
193.8496902179
 20
42.6717189863
 10
193.1962787276
 20
42.5091964133
 10
192.5583816322
 20
42.4107681971
 10
191.9394829045
 20
42.3769719185
 10
191.3429627545
 20
42.4079921611
 10
190.7720791686
 20
42.503659503
 10
190.229950115
 20
42.6634514424
 10
189.7195365144
 20
42.8864952511
 10
189.2436260691
 20
43.1715727412
 10
188.8048180368
 20
43.5171269183
 10
188.4055090348
 20
43.9212704853
 10
188.0478799505
 20
44.3817961502
 10
187.7338840298
 20
44.8961886816
 10
187.4652362097
 20
45.4616386457
 10
187.2434037513
 20
46.0750577509
 10
187.0695982266
 20
46.7330957149
 10
186.9447689011
 20
47.4321585624
 10
186.8695975493
 20
48.1684282547
 10
186.8444947311
 20
48.9378835418
  0
LWPOLYLINE
  5
114
330
1F
100
AcDbEntity
  8
0
  6
Continuous
 62
     7
370
    25
100
AcDbPolyline
 90
       96
 70
   128
 43
0.0
 10
184.7231743875
 20
47.7132713741
 10
184.7479103719
 20
48.591001704
 10
184.8220101606
 20
49.4934535021
 10
184.9451497344
 20
50.4166805763
 10
185.116790635
 20
51.3566458895
 10
185.3361823206
 20
52.3092392125
 10
185.6023654471
 20
53.2702950972
 10
185.9141760634
 20
54.2356110906
 10
186.2702507011
 20
55.2009661115
 10
186.6690323363
 20
56.1621389081
 10
187.1087771985
 20
57.1149265162
 10
187.5875623951
 20
58.0551626381
 10
188.1032943205
 20
58.9787358605
 10
188.65371781
 20
59.8816076327
 10
189.2364260019
 20
60.759829926
 10
189.8488708615
 20
61.6095624979
 10
190.4883743231
 20
62.427089684
 10
191.152140001
 20
63.208836646
 10
191.8372654166
 20
63.9513850034
 10
192.5407546909
 20
64.6514877809
 10
193.2595316443
 20
65.3060836075
 10
193.9904532479
 20
65.912310102
 10
194.7303233677
 20
66.4675163902
 10
195.4759067399
 20
66.9692746964
 10
196.2239431179
 20
67.415390959
 10
196.9711615292
 20
67.8039144253
 10
197.7142945777
 20
68.1331461809
 10
198.4500927317
 20
68.4016465791
 10
199.175338533
 20
68.6082415361
 10
199.8868606663
 20
68.7520276646
 10
200.5815478264
 20
68.8323762244
 10
201.256362323
 20
68.8489358719
 10
201.9083533641
 20
68.8016341957
 10
202.5346699587
 20
68.6906780342
 10
203.1325733837
 20
68.5165525705
 10
203.6994491596
 20
68.2800192107
 10
204.2328184828
 20
67.9821122552
 10
204.730349065
 20
67.6241343753
 10
205.1898653316
 20
67.2076509171
 10
205.6093579348
 20
66.7344830569
 10
205.9869925402
 20
66.2066998373
 10
206.3211178477
 20
65.62660912
 10
206.6102728125
 20
64.9967474941
 10
206.8531930334
 20
64.3198691844
 10
207.0488162821
 20
63.5989340073
 10
207.1962871479
 20
62.8370944291
 10
207.2949607782
 20
62.0376817802
 10
207.3444056984
 20
61.2041916889
 10
207.3444056984
 20
60.3402687953
 10
207.2949607782
 20
59.4496908143
 10
207.1962871479
 20
58.5363520169
 10
207.0488162821
 20
57.6042462012
 10
206.8531930334
 20
56.6574492288
 10
206.6102728125
 20
55.700101202
 10
206.3211178477
 20
54.73638836
 10
205.9869925402
 20
53.770524774
 10
205.6093579348
 20
52.8067339197
 10
205.1898653316
 20
51.8492302092
 10
204.730349065
 20
50.9022005627
 10
204.2328184828
 20
49.9697860998
 10
203.6994491596
 20
49.0560640317
 10
203.1325733837
 20
48.1650298325
 10
202.5346699587
 20
47.3005797682
 10
201.9083533641
 20
46.4664938588
 10
201.256362323
 20
45.6664193499
 10
200.5815478264
 20
44.9038547636
 10
199.8868606663
 20
44.182134601
 10
199.175338533
 20
43.5044147606
 10
198.4500927317
 20
42.8736587388
 10
197.7142945777
 20
42.2926246714
 10
196.9711615292
 20
41.7638532723
 10
196.2239431179
 20
41.2896567244
 10
195.4759067399
 20
40.8721085685
 10
194.7303233677
 20
40.5130346366
 10
193.9904532479
 20
40.2140050674
 10
193.2595316443
 20
39.9763274413
 10
192.5407546909
 20
39.8010410621
 10
191.8372654166
 20
39.6889124124
 10
191.152140001
 20
39.6404318023
 10
190.4883743231
 20
39.6558112252
 10
189.8488708615
 20
39.7349834309
 10
189.2364260019
 20
39.8776022193
 10
188.65371781
 20
40.0830439548
 10
188.1032943205
 20
40.350410293
 10
187.5875623951
 20
40.6785321089
 10
187.1087771985
 20
41.0659746093
 10
186.6690323363
 20
41.5110436067
 10
186.2702507011
 20
42.0117929277
 10
185.9141760634
 20
42.5660329228
 10
185.6023654471
 20
43.1713400416
 10
185.3361823206
 20
43.82506743
 10
185.116790635
 20
44.5243565046
 10
184.9451497344
 20
45.2661494521
 10
184.8220101606
 20
46.0472026007
 10
184.7479103719
 20
46.8641006038
 10
184.7231743875
 20
47.7132713741
  0
LWPOLYLINE
  5
115
330
1F
100
AcDbEntity
  8
0
  6
Continuous
 62
     7
370
    25
100
AcDbPolyline
 90
       50
 70
   128
 43
0.0
 10
231.2598438233
 20
52.3854619142
 10
231.4564295585
 20
52.2662561026
 10
231.9539601407
 20
51.9082782227
 10
232.4134764073
 20
51.4917947645
 10
232.8329690105
 20
51.0186269043
 10
233.2106036159
 20
50.4908436847
 10
233.5447289234
 20
49.9107529674
 10
233.8338838882
 20
49.2808913415
 10
234.0768041091
 20
48.6040130318
 10
234.2724273578
 20
47.8830778547
 10
234.4198982236
 20
47.1212382765
 10
234.5185718539
 20
46.3218256276
 10
234.5680167741
 20
45.4883355364
 10
234.5680167741
 20
44.6244126427
 10
234.5185718539
 20
43.7338346617
 10
234.4198982236
 20
42.8204958643
 10
234.2724273578
 20
41.8883900486
 10
234.0768041091
 20
40.9415930762
 10
233.8338838882
 20
39.9842450494
 10
233.5447289234
 20
39.0205322074
 10
233.2106036159
 20
38.0546686215
 10
232.8329690105
 20
37.0908777671
 10
232.4134764073
 20
36.1333740566
 10
231.9539601407
 20
35.1863444101
 10
231.4564295585
 20
34.2539299472
 10
230.9230602353
 20
33.3402078791
 10
230.3561844594
 20
32.44917368
 10
229.7582810344
 20
31.5847236156
 10
229.1319644398
 20
30.7506377062
 10
228.4799733987
 20
29.9505631973
 10
227.8051589021
 20
29.187998611
 10
227.110471742
 20
28.4662784484
 10
226.3989496087
 20
27.788558608
 10
225.6737038074
 20
27.1578025862
 10
224.9379056534
 20
26.5767685188
 10
224.1947726049
 20
26.0479971197
 10
223.4475541936
 20
25.5738005718
 10
222.6995178155
 20
25.1562524159
 10
221.9539344434
 20
24.797178484
 10
221.2140643236
 20
24.4981489148
 10
220.48314272
 20
24.2604712887
 10
219.7643657666
 20
24.0851849095
 10
219.0608764923
 20
23.9730562598
 10
218.3757510767
 20
23.9245756497
 10
217.7119853988
 20
23.9399550727
 10
217.0724819371
 20
24.0191272783
 10
216.4600370776
 20
24.1617460667
 10
215.8773288857
 20
24.3671878022
 10
215.3269053962
 20
24.6345541404
 10
215.2611441011
 20
24.671898318
  0
LWPOLYLINE
  5
116
330
1F
100
AcDbEntity
  8
0
  6
Continuous
 62
     7
370
    25
100
AcDbPolyline
 90
       26
 70
   128
 43
0.0
 10
193.915562543
 20
44.8558429827
 10
193.9406653612
 20
45.6542813669
 10
194.015836713
 20
46.4773420545
 10
194.1406660384
 20
47.3205297734
 10
194.3144715631
 20
48.1792393248
 10
194.5363040215
 20
49.0487807348
 10
194.8049518417
 20
49.9244048698
 10
195.1189477624
 20
50.8013293744
 10
195.4765768467
 20
51.6747647911
 10
195.8758858487
 20
52.5399407185
 10
196.314693881
 20
53.3921318656
 10
196.7906043263
 20
54.22668386
 10
197.3010179269
 20
55.0390386681
 10
197.8431469805
 20
55.8247594895
 10
198.4140305664
 20
56.5795549898
 10
199.0105507163
 20
57.2993027374
 10
199.6294494441
 20
57.98007172
 10
200.2673465395
 20
58.6181438133
 10
200.9207580297
 20
59.2100340888
 10
201.5861152079
 20
59.7525098471
 10
202.2597841237
 20
60.2426082738
 10
202.9380854313
 20
60.6776526211
 10
203.6173144841
 20
61.0552668277
 10
204.2937615685
 20
61.3733884958
 10
204.9637321651
 20
61.6302801551
 10
205.0265157767
 20
61.6513162281
  0
ARC
  5
117
330
1F
100
AcDbEntity
  8
0
  6
Continuous
 62
     7
370
    25
100
AcDbCircle
 10
204.2627966962
 20
44.7949581765
 30
0.0
 40
10.34741327974334
100
AcDbArc
 50
179.6628662187
 51
191.366111466
  0
ARC
  5
118
330
1F
100
AcDbEntity
  8
0
  6
Continuous
 62
     7
370
    25
100
AcDbCircle
 10
213.1844977915
 20
44.2706253199
 30
0.0
 40
17.15759821892311
100
AcDbArc
 50
117.62423927
 51
178.0453553807
  0
LWPOLYLINE
  5
119
330
1F
100
AcDbEntity
  8
0
  6
Continuous
 62
     7
370
    25
100
AcDbPolyline
 90
        3
 70
   128
 43
0.0
 10
196.1064923768
 20
43.6699947706
 10
196.0619502901
 20
44.1335659689
 10
196.0368828865
 20
44.8558429827
  0
LINE
  5
11A
330
1F
100
AcDbEntity
  8
0
  6
Continuous
 62
     7
370
    25
100
AcDbLine
 10
223.2604939622
 20
16.842897469
 30
0.0
 11
206.9970379949
 21
18.2970955066
 31
0.0
  0
LINE
  5
11B
330
1F
100
AcDbEntity
  8
0
  6
Continuous
 62
     7
370
    25
100
AcDbLine
 10
206.9970379949
 20
18.2970955066
 30
0.0
 11
206.9970379949
 21
29.4426652245
 31
0.0
  0
LINE
  5
11C
330
1F
100
AcDbEntity
  8
0
  6
Continuous
 62
     7
370
    25
100
AcDbLine
 10
221.4974055662
 20
58.02119756
 30
0.0
 11
223.2604939622
 21
60.2144627632
 31
0.0
  0
LINE
  5
11D
330
1F
100
AcDbEntity
  8
0
  6
Continuous
 62
     7
370
    25
100
AcDbLine
 10
223.2604939622
 20
60.2144627632
 30
0.0
 11
239.5239499295
 21
58.7602647256
 31
0.0
  0
LINE
  5
11E
330
1F
100
AcDbEntity
  8
0
  6
Continuous
 62
     7
370
    25
100
AcDbLine
 10
239.5239499295
 20
58.7602647256
 30
0.0
 11
239.5239499295
 21
37.0744820785
 31
0.0
  0
LINE
  5
11F
330
1F
100
AcDbEntity
  8
0
  6
Continuous
 62
     7
370
    25
100
AcDbLine
 10
239.5239499295
 20
37.0744820785
 30
0.0
 11
223.2604939622
 21
16.842897469
 31
0.0
  0
LINE
  5
120
330
1F
100
AcDbEntity
  8
0
  6
Continuous
 62
     7
370
    25
100
AcDbLine
 10
223.2604939622
 20
16.842897469
 30
0.0
 11
233.86709568
 21
10.7198366303
 31
0.0
  0
LINE
  5
121
330
1F
100
AcDbEntity
  8
0
  6
Continuous
 62
     7
370
    25
100
AcDbLine
 10
239.5239499295
 20
37.0744820785
 30
0.0
 11
250.1305516473
 21
30.9514212398
 31
0.0
  0
LINE
  5
122
330
1F
100
AcDbEntity
  8
0
  6
Continuous
 62
     7
370
    25
100
AcDbLine
 10
233.86709568
 20
10.7198366303
 30
0.0
 11
250.1305516473
 21
30.9514212398
 31
0.0
  0
LINE
  5
123
330
1F
100
AcDbEntity
  8
0
  6
Continuous
 62
     7
370
    25
100
AcDbLine
 10
239.5239499295
 20
58.7602647256
 30
0.0
 11
250.1305516473
 21
52.637203887
 31
0.0
  0
LINE
  5
124
330
1F
100
AcDbEntity
  8
0
  6
Continuous
 62
     7
370
    25
100
AcDbLine
 10
250.1305516473
 20
30.9514212398
 30
0.0
 11
250.1305516473
 21
52.637203887
 31
0.0
  0
LINE
  5
125
330
1F
100
AcDbEntity
  8
0
  6
Continuous
 62
     7
370
    25
100
AcDbLine
 10
206.9970379949
 20
18.2970955066
 30
0.0
 11
217.6036397127
 21
12.1740346679
 31
0.0
  0
LINE
  5
126
330
1F
100
AcDbEntity
  8
0
  6
Continuous
 62
     7
370
    25
100
AcDbLine
 10
217.6036397127
 20
12.1740346679
 30
0.0
 11
233.86709568
 21
10.7198366303
 31
0.0
  0
LWPOLYLINE
  5
127
330
1F
100
AcDbEntity
  8
0
  6
Continuous
 62
     7
370
    25
100
AcDbPolyline
 90
       50
 70
   128
 43
0.0
 10
251.9244947413
 20
41.1488144214
 10
252.2542974629
 20
40.9426547239
 10
252.751273326
 20
40.5652756855
 10
253.2099711371
 20
40.130044547
 10
253.6284669582
 20
39.638786819
 10
254.0050054723
 20
39.0935630072
 10
254.3380073461
 20
38.4966599697
 10
254.626075854
 20
37.8505813253
 10
254.8680027366
 20
37.1580369523
 10
255.0627732684
 20
36.4219316226
 10
255.2095705141
 20
35.6453528176
 10
255.3077787551
 20
34.8315577788
 10
255.3569860719
 20
33.9839598454
 10
255.3569860719
 20
33.1061141377
 10
255.3077787551
 20
32.2017026457
 10
255.2095705141
 20
31.2745187854
 10
255.0627732684
 20
30.3284514881
 10
254.8680027366
 20
29.367468889
 10
254.626075854
 20
28.395601683
 10
254.3380073461
 20
27.4169262189
 10
254.0050054723
 20
26.4355474017
 10
253.6284669582
 20
25.4555814752
 10
253.2099711371
 20
24.4811387572
 10
252.751273326
 20
23.5163063989
 10
252.2542974629
 20
22.5651312426
 10
251.7211280374
 20
21.6316028474
 10
251.1540013471
 20
20.719636756
 10
250.5552961186
 20
19.8330580709
 10
249.9275235297
 20
18.9755854114
 10
249.2733166768
 20
18.1508153156
 10
248.5954195307
 20
17.3622071562
 10
247.8966754277
 20
16.6130686296
 10
247.1800151434
 20
15.9065418833
 10
246.4484446
 20
15.245590336
 10
245.7050322588
 20
14.6329862481
 10
244.9528962493
 20
14.0712990941
 10
244.1951912914
 20
13.5628847851
 10
243.435095463
 20
13.1098757874
 10
242.6757968701
 20
12.7141721782
 10
241.920480275
 20
12.377433676
 10
241.172313738
 20
12.1010726789
 10
240.4344353294
 20
11.8862483412
 10
239.7099399678
 20
11.7338617106
 10
239.0018664384
 20
11.6445519498
 10
238.3131846479
 20
11.6186936549
 10
237.6467831668
 20
11.6563952846
 10
237.0054571146
 20
11.757498705
 10
236.3918964357
 20
11.9215798534
 10
235.8086746168
 20
12.1479505164
 10
235.3258437795
 20
12.3959921903
  0
LWPOLYLINE
  5
128
330
1F
100
AcDbEntity
  8
0
  6
Continuous
 62
     7
370
    25
100
AcDbPolyline
 90
       53
 70
   128
 43
0.0
 10
252.6014335524
 20
40.6883522463
 10
253.1353415997
 20
40.4441906915
 10
253.6685110253
 20
40.126246612
 10
254.1654868884
 20
39.7488675737
 10
254.6241846995
 20
39.3136364352
 10
255.0426805206
 20
38.8223787072
 10
255.4192190347
 20
38.2771548954
 10
255.7522209085
 20
37.6802518579
 10
256.0402894164
 20
37.0341732135
 10
256.2822162989
 20
36.3416288405
 10
256.4769868307
 20
35.6055235107
 10
256.6237840765
 20
34.8289447058
 10
256.7219923175
 20
34.015149667
 10
256.7711996343
 20
33.1675517336
 10
256.7711996343
 20
32.2897060259
 10
256.7219923175
 20
31.3852945339
 10
256.6237840765
 20
30.4581106735
 10
256.4769868307
 20
29.5120433763
 10
256.2822162989
 20
28.5510607772
 10
256.0402894164
 20
27.5791935712
 10
255.7522209085
 20
26.6005181071
 10
255.4192190347
 20
25.6191392899
 10
255.0426805206
 20
24.6391733634
 10
254.6241846995
 20
23.6647306453
 10
254.1654868884
 20
22.699898287
 10
253.6685110253
 20
21.7487231307
 10
253.1353415997
 20
20.8151947356
 10
252.5682149095
 20
19.9032286441
 10
251.969509681
 20
19.0166499591
 10
251.3417370921
 20
18.1591772995
 10
250.6875302391
 20
17.3344072038
 10
250.0096330931
 20
16.5457990444
 10
249.3108889901
 20
15.7966605178
 10
248.5942287058
 20
15.0901337715
 10
247.8626581624
 20
14.4291822242
 10
247.1192458211
 20
13.8165781363
 10
246.3671098117
 20
13.2548909823
 10
245.6094048538
 20
12.7464766733
 10
244.8493090254
 20
12.2934676756
 10
244.0900104325
 20
11.8977640664
 10
243.3346938374
 20
11.5610255641
 10
242.5865273003
 20
11.2846645671
 10
241.8486488918
 20
11.0698402293
 10
241.1241535301
 20
10.9174535988
 10
240.4160800008
 20
10.828143838
 10
239.7273982102
 20
10.8022855431
 10
239.0609967292
 20
10.8399871727
 10
238.419670677
 20
10.9410905932
 10
237.8061099981
 20
11.1051717416
 10
237.2228881791
 20
11.3315424046
 10
236.6724514552
 20
11.619253105
 10
236.1571085491
 20
11.967097084
 10
236.0631185307
 20
12.0400462535
  0
LWPOLYLINE
  5
129
330
1F
100
AcDbEntity
  8
0
  6
Continuous
 62
     7
370
    25
100
AcDbPolyline
 90
       53
 70
   128
 43
0.0
 10
254.0156471148
 20
39.8719441345
 10
254.5495551621
 20
39.6277825796
 10
255.0827245877
 20
39.3098385002
 10
255.5797004508
 20
38.9324594618
 10
256.0383982619
 20
38.4972283233
 10
256.4568940829
 20
38.0059705954
 10
256.833432597
 20
37.4607467836
 10
257.1664344708
 20
36.8638437461
 10
257.4545029787
 20
36.2177651016
 10
257.6964298613
 20
35.5252207287
 10
257.8912003931
 20
34.7891153989
 10
258.0379976388
 20
34.012536594
 10
258.1362058799
 20
33.1987415552
 10
258.1854131967
 20
32.3511436218
 10
258.1854131967
 20
31.4732979141
 10
258.1362058799
 20
30.568886422
 10
258.0379976388
 20
29.6417025617
 10
257.8912003931
 20
28.6956352645
 10
257.6964298613
 20
27.7346526654
 10
257.4545029787
 20
26.7627854594
 10
257.1664344708
 20
25.7841099953
 10
256.833432597
 20
24.8027311781
 10
256.4568940829
 20
23.8227652516
 10
256.0383982619
 20
22.8483225335
 10
255.5797004508
 20
21.8834901752
 10
255.0827245877
 20
20.9323150189
 10
254.5495551621
 20
19.9987866238
 10
253.9824284718
 20
19.0868205323
 10
253.3837232434
 20
18.2002418473
 10
252.7559506545
 20
17.3427691877
 10
252.1017438015
 20
16.517999092
 10
251.4238466554
 20
15.7293909325
 10
250.7251025524
 20
14.980252406
 10
250.0084422681
 20
14.2737256597
 10
249.2768717248
 20
13.6127741124
 10
248.5334593835
 20
13.0001700245
 10
247.781323374
 20
12.4384828705
 10
247.0236184161
 20
11.9300685615
 10
246.2635225877
 20
11.4770595638
 10
245.5042239949
 20
11.0813559546
 10
244.7489073998
 20
10.7446174523
 10
244.0007408627
 20
10.4682564553
 10
243.2628624541
 20
10.2534321175
 10
242.5383670925
 20
10.101045487
 10
241.8302935632
 20
10.0117357262
 10
241.1416117726
 20
9.9858774313
 10
240.4752102915
 20
10.0235790609
 10
239.8338842394
 20
10.1246824814
 10
239.2203235605
 20
10.2887636298
 10
238.6371017415
 20
10.5151342928
 10
238.0866650175
 20
10.8028449932
 10
237.5713221114
 20
11.1506889722
 10
237.4773320931
 20
11.2236381417
  0
LWPOLYLINE
  5
12A
330
1F
100
AcDbEntity
  8
0
  6
Continuous
 62
     7
370
    25
100
AcDbPolyline
 90
       53
 70
   128
 43
0.0
 10
255.4298606772
 20
39.0555360227
 10
255.9637687245
 20
38.8113744678
 10
256.4969381501
 20
38.4934303884
 10
256.9939140132
 20
38.11605135
 10
257.4526118242
 20
37.6808202115
 10
257.8711076453
 20
37.1895624836
 10
258.2476461594
 20
36.6443386717
 10
258.5806480332
 20
36.0474356342
 10
258.8687165411
 20
35.4013569898
 10
259.1106434237
 20
34.7088126168
 10
259.3054139555
 20
33.9727072871
 10
259.4522112012
 20
33.1961284821
 10
259.5504194422
 20
32.3823334434
 10
259.599626759
 20
31.53473551
 10
259.599626759
 20
30.6568898023
 10
259.5504194422
 20
29.7524783102
 10
259.4522112012
 20
28.8252944499
 10
259.3054139555
 20
27.8792271527
 10
259.1106434237
 20
26.9182445536
 10
258.8687165411
 20
25.9463773475
 10
258.5806480332
 20
24.9677018834
 10
258.2476461594
 20
23.9863230662
 10
257.8711076453
 20
23.0063571398
 10
257.4526118242
 20
22.0319144217
 10
256.9939140132
 20
21.0670820634
 10
256.4969381501
 20
20.1159069071
 10
255.9637687245
 20
19.182378512
 10
255.3966420342
 20
18.2704124205
 10
254.7979368057
 20
17.3838337354
 10
254.1701642168
 20
16.5263610759
 10
253.5159573639
 20
15.7015909802
 10
252.8380602178
 20
14.9129828207
 10
252.1393161148
 20
14.1638442942
 10
251.4226558305
 20
13.4573175479
 10
250.6910852872
 20
12.7963660005
 10
249.9476729459
 20
12.1837619126
 10
249.1955369364
 20
11.6220747586
 10
248.4378319785
 20
11.1136604497
 10
247.6777361501
 20
10.660651452
 10
246.9184375573
 20
10.2649478428
 10
246.1631209622
 20
9.9282093405
 10
245.4149544251
 20
9.6518483434
 10
244.6770760165
 20
9.4370240057
 10
243.9525806549
 20
9.2846373752
 10
243.2445071256
 20
9.1953276144
 10
242.555825335
 20
9.1694693195
 10
241.8894238539
 20
9.2071709491
 10
241.2480978017
 20
9.3082743696
 10
240.6345371228
 20
9.472355518
 10
240.0513153039
 20
9.698726181
 10
239.5008785799
 20
9.9864368813
 10
238.9855356738
 20
10.3342808604
 10
238.8915456555
 20
10.4072300299
  0
LWPOLYLINE
  5
12B
330
1F
100
AcDbEntity
  8
0
  6
Continuous
 62
     7
370
    25
100
AcDbPolyline
 90
       50
 70
   128
 43
0.0
 10
256.3085567846
 20
38.6179492747
 10
256.6383595063
 20
38.4117895772
 10
257.1353353694
 20
38.0344105388
 10
257.5940331805
 20
37.5991794003
 10
258.0125290015
 20
37.1079216724
 10
258.3890675157
 20
36.5626978606
 10
258.7220693895
 20
35.9657948231
 10
259.0101378974
 20
35.3197161786
 10
259.2520647799
 20
34.6271718057
 10
259.4468353117
 20
33.8910664759
 10
259.5936325575
 20
33.114487671
 10
259.6918407985
 20
32.3006926322
 10
259.7410481153
 20
31.4530946988
 10
259.7410481153
 20
30.5752489911
 10
259.6918407985
 20
29.670837499
 10
259.5936325575
 20
28.7436536387
 10
259.4468353117
 20
27.7975863415
 10
259.2520647799
 20
26.8366037424
 10
259.0101378974
 20
25.8647365364
 10
258.7220693895
 20
24.8860610723
 10
258.3890675157
 20
23.9046822551
 10
258.0125290015
 20
22.9247163286
 10
257.5940331805
 20
21.9502736105
 10
257.1353353694
 20
20.9854412522
 10
256.6383595063
 20
20.0342660959
 10
256.1051900807
 20
19.1007377008
 10
255.5380633905
 20
18.1887716093
 10
254.939358162
 20
17.3021929243
 10
254.3115855731
 20
16.4447202647
 10
253.6573787201
 20
15.619950169
 10
252.979481574
 20
14.8313420095
 10
252.2807374711
 20
14.082203483
 10
251.5640771867
 20
13.3756767367
 10
250.8325066434
 20
12.7147251894
 10
250.0890943021
 20
12.1021211015
 10
249.3369582926
 20
11.5404339475
 10
248.5792533347
 20
11.0320196385
 10
247.8191575063
 20
10.5790106408
 10
247.0598589135
 20
10.1833070316
 10
246.3045423184
 20
9.8465685293
 10
245.5563757813
 20
9.5702075323
 10
244.8184973727
 20
9.3553831945
 10
244.0940020111
 20
9.202996564
 10
243.3859284818
 20
9.1136868032
 10
242.6972466912
 20
9.0878285083
 10
242.0308452101
 20
9.1255301379
 10
241.389519158
 20
9.2266335584
 10
240.7759584791
 20
9.3907147068
 10
240.1927366601
 20
9.6170853698
 10
239.7099058229
 20
9.8651270437
  0
LINE
  5
12C
330
1F
100
AcDbEntity
  8
0
  6
Continuous
 62
     7
370
    25
100
AcDbLine
 10
123.2323425481
 20
74.9232335961
 30
0.0
 11
123.2323425481
 21
74.7232335961
 31
0.0
  0
LINE
  5
12D
330
1F
100
AcDbEntity
  8
0
  6
Continuous
 62
     7
370
    25
100
AcDbLine
 10
156.4323425481
 20
74.7232335961
 30
0.0
 11
156.4323425481
 21
74.9232335961
 31
0.0
  0
LINE
  5
12E
330
1F
100
AcDbEntity
  8
0
  6
Continuous
 62
     7
370
    25
100
AcDbLine
 10
123.2323425481
 20
74.7232335961
 30
0.0
 11
124.9643933556
 21
73.7232335961
 31
0.0
  0
LINE
  5
12F
330
1F
100
AcDbEntity
  8
0
  6
Continuous
 62
     7
370
    25
100
AcDbLine
 10
154.7002917405
 20
73.7232335961
 30
0.0
 11
156.4323425481
 21
74.7232335961
 31
0.0
  0
LINE
  5
130
330
1F
100
AcDbEntity
  8
0
  6
Continuous
 62
     7
370
    25
100
AcDbLine
 10
156.4323425481
 20
72.7232335961
 30
0.0
 11
154.7002917405
 21
73.7232335961
 31
0.0
  0
LINE
  5
131
330
1F
100
AcDbEntity
  8
0
  6
Continuous
 62
     7
370
    25
100
AcDbLine
 10
124.9643933556
 20
73.7232335961
 30
0.0
 11
123.2323425481
 21
72.7232335961
 31
0.0
  0
LINE
  5
132
330
1F
100
AcDbEntity
  8
0
  6
Continuous
 62
     7
370
    25
100
AcDbLine
 10
123.2323425481
 20
72.7232335961
 30
0.0
 11
124.9643933556
 21
71.7232335961
 31
0.0
  0
LINE
  5
133
330
1F
100
AcDbEntity
  8
0
  6
Continuous
 62
     7
370
    25
100
AcDbLine
 10
154.7002917405
 20
71.7232335961
 30
0.0
 11
156.4323425481
 21
72.7232335961
 31
0.0
  0
LINE
  5
134
330
1F
100
AcDbEntity
  8
0
  6
Continuous
 62
     7
370
    25
100
AcDbLine
 10
156.4323425481
 20
70.7232335961
 30
0.0
 11
154.7002917405
 21
71.7232335961
 31
0.0
  0
LINE
  5
135
330
1F
100
AcDbEntity
  8
0
  6
Continuous
 62
     7
370
    25
100
AcDbLine
 10
124.9643933556
 20
71.7232335961
 30
0.0
 11
123.2323425481
 21
70.7232335961
 31
0.0
  0
LINE
  5
136
330
1F
100
AcDbEntity
  8
0
  6
Continuous
 62
     7
370
    25
100
AcDbLine
 10
123.2323425481
 20
70.7232335961
 30
0.0
 11
124.9643933556
 21
69.7232335961
 31
0.0
  0
LINE
  5
137
330
1F
100
AcDbEntity
  8
0
  6
Continuous
 62
     7
370
    25
100
AcDbLine
 10
154.7002917405
 20
69.7232335961
 30
0.0
 11
156.4323425481
 21
70.7232335961
 31
0.0
  0
LINE
  5
138
330
1F
100
AcDbEntity
  8
0
  6
Continuous
 62
     7
370
    25
100
AcDbLine
 10
156.4323425481
 20
68.7232335961
 30
0.0
 11
154.7002917405
 21
69.7232335961
 31
0.0
  0
LINE
  5
139
330
1F
100
AcDbEntity
  8
0
  6
Continuous
 62
     7
370
    25
100
AcDbLine
 10
124.9643933556
 20
69.7232335961
 30
0.0
 11
123.2323425481
 21
68.7232335961
 31
0.0
  0
LINE
  5
13A
330
1F
100
AcDbEntity
  8
0
  6
Continuous
 62
     7
370
    25
100
AcDbLine
 10
123.2323425481
 20
68.7232335961
 30
0.0
 11
123.2323425481
 21
54.9232335961
 31
0.0
  0
LINE
  5
13B
330
1F
100
AcDbEntity
  8
0
  6
Continuous
 62
     7
370
    25
100
AcDbLine
 10
156.4323425481
 20
54.9232335961
 30
0.0
 11
156.4323425481
 21
68.7232335961
 31
0.0
  0
LINE
  5
13C
330
1F
100
AcDbEntity
  8
0
  6
Continuous
 62
     7
370
    25
100
AcDbLine
 10
123.8323425481
 20
39.9232335961
 30
0.0
 11
123.8323425481
 21
1.4232335961
 31
0.0
  0
LINE
  5
13D
330
1F
100
AcDbEntity
  8
0
  6
Continuous
 62
     7
370
    25
100
AcDbLine
 10
155.8323425481
 20
1.4232335961
 30
0.0
 11
155.8323425481
 21
39.9232335961
 31
0.0
  0
LINE
  5
13E
330
1F
100
AcDbEntity
  8
0
  6
Continuous
 62
     7
370
    25
100
AcDbLine
 10
139.8323425481
 20
39.9232335961
 30
0.0
 11
139.8323425481
 21
54.9232335961
 31
0.0
  0
LINE
  5
13F
330
1F
100
AcDbEntity
  8
0
  6
Continuous
 62
     7
370
    25
100
AcDbLine
 10
116.8323425481
 20
39.9232335961
 30
0.0
 11
139.8323425481
 21
39.9232335961
 31
0.0
  0
LINE
  5
140
330
1F
100
AcDbEntity
  8
0
  6
Continuous
 62
     7
370
    25
100
AcDbLine
 10
116.8323425481
 20
39.9232335961
 30
0.0
 11
116.8323425481
 21
54.9232335961
 31
0.0
  0
LINE
  5
141
330
1F
100
AcDbEntity
  8
0
  6
Continuous
 62
     7
370
    25
100
AcDbLine
 10
139.8323425481
 20
54.9232335961
 30
0.0
 11
116.8323425481
 21
54.9232335961
 31
0.0
  0
LINE
  5
142
330
1F
100
AcDbEntity
  8
0
  6
Continuous
 62
     7
370
    25
100
AcDbLine
 10
162.8323425481
 20
39.9232335961
 30
0.0
 11
162.8323425481
 21
54.9232335961
 31
0.0
  0
LINE
  5
143
330
1F
100
AcDbEntity
  8
0
  6
Continuous
 62
     7
370
    25
100
AcDbLine
 10
139.8323425481
 20
39.9232335961
 30
0.0
 11
162.8323425481
 21
39.9232335961
 31
0.0
  0
LINE
  5
144
330
1F
100
AcDbEntity
  8
0
  6
Continuous
 62
     7
370
    25
100
AcDbLine
 10
162.8323425481
 20
54.9232335961
 30
0.0
 11
139.8323425481
 21
54.9232335961
 31
0.0
  0
LINE
  5
145
330
1F
100
AcDbEntity
  8
0
  6
Continuous
 62
     7
370
    25
100
AcDbLine
 10
123.2323425481
 20
74.7232335961
 30
0.0
 11
156.4323425481
 21
74.7232335961
 31
0.0
  0
LINE
  5
146
330
1F
100
AcDbEntity
  8
0
  6
Continuous
 62
     7
370
    25
100
AcDbLine
 10
123.2323425481
 20
74.9232335961
 30
0.0
 11
156.4323425481
 21
74.9232335961
 31
0.0
  0
LINE
  5
147
330
1F
100
AcDbEntity
  8
0
  6
Continuous
 62
     7
370
    25
100
AcDbLine
 10
124.9643933556
 20
73.7232335961
 30
0.0
 11
154.7002917405
 21
73.7232335961
 31
0.0
  0
LINE
  5
148
330
1F
100
AcDbEntity
  8
0
  6
Continuous
 62
     7
370
    25
100
AcDbLine
 10
123.2323425481
 20
72.7232335961
 30
0.0
 11
156.4323425481
 21
72.7232335961
 31
0.0
  0
LINE
  5
149
330
1F
100
AcDbEntity
  8
0
  6
Continuous
 62
     7
370
    25
100
AcDbLine
 10
124.9643933556
 20
71.7232335961
 30
0.0
 11
154.7002917405
 21
71.7232335961
 31
0.0
  0
LINE
  5
14A
330
1F
100
AcDbEntity
  8
0
  6
Continuous
 62
     7
370
    25
100
AcDbLine
 10
123.2323425481
 20
70.7232335961
 30
0.0
 11
156.4323425481
 21
70.7232335961
 31
0.0
  0
LINE
  5
14B
330
1F
100
AcDbEntity
  8
0
  6
Continuous
 62
     7
370
    25
100
AcDbLine
 10
124.9643933556
 20
69.7232335961
 30
0.0
 11
154.7002917405
 21
69.7232335961
 31
0.0
  0
LINE
  5
14C
330
1F
100
AcDbEntity
  8
0
  6
Continuous
 62
     7
370
    25
100
AcDbLine
 10
123.2323425481
 20
68.7232335961
 30
0.0
 11
156.4323425481
 21
68.7232335961
 31
0.0
  0
LINE
  5
14D
330
1F
100
AcDbEntity
  8
0
  6
Continuous
 62
     7
370
    25
100
AcDbLine
 10
123.8323425481
 20
1.4232335961
 30
0.0
 11
155.8323425481
 21
1.4232335961
 31
0.0
  0
ENDSEC
  0
SECTION
  2
OBJECTS
  0
DICTIONARY
  5
C
330
0
100
AcDbDictionary
281
     1
  3
ACAD_GROUP
350
D
  3
ACAD_LAYOUT
350
1A
  3
ACAD_MLINESTYLE
350
17
  3
ACAD_PLOTSETTINGS
350
19
  3
ACAD_PLOTSTYLENAME
350
E
  3
ACAD_SCALELIST
350
47
  3
DWGPROPS
350
14E
  0
DICTIONARY
  5
D
102
{ACAD_REACTORS
330
C
102
}
330
C
100
AcDbDictionary
281
     1
  0
DICTIONARY
  5
1A
102
{ACAD_REACTORS
330
C
102
}
330
C
100
AcDbDictionary
281
     1
  3
Layout1
350
1E
  3
Layout2
350
26
  3
Model
350
22
  0
DICTIONARY
  5
17
102
{ACAD_REACTORS
330
C
102
}
330
C
100
AcDbDictionary
281
     1
  3
Standard
350
18
  0
DICTIONARY
  5
19
102
{ACAD_REACTORS
330
C
102
}
330
C
100
AcDbDictionary
281
     1
  0
ACDBDICTIONARYWDFLT
  5
E
102
{ACAD_REACTORS
330
C
102
}
330
C
100
AcDbDictionary
281
     1
  3
Normal
350
F
100
AcDbDictionaryWithDefault
340
F
  0
DICTIONARY
  5
47
102
{ACAD_REACTORS
330
C
102
}
330
C
100
AcDbDictionary
281
     1
  3
A0
350
48
  3
A1
350
49
  3
A2
350
4A
  3
A3
350
4B
  3
A4
350
4C
  3
A5
350
4D
  3
A6
350
4E
  3
A7
350
4F
  3
A8
350
50
  3
A9
350
51
  3
B0
350
52
  3
B1
350
53
  3
B2
350
54
  3
B3
350
55
  3
B4
350
56
  3
B5
350
57
  3
B6
350
58
  3
B7
350
59
  3
B8
350
5A
  3
B9
350
5B
  3
C0
350
5C
  3
C1
350
5D
  3
C2
350
5E
  3
C3
350
5F
  3
C4
350
60
  3
C5
350
61
  3
C6
350
62
  3
C7
350
63
  3
C8
350
64
  3
C9
350
65
  3
D0
350
66
  3
D1
350
67
  3
D2
350
68
  0
XRECORD
  5
14E
102
{ACAD_REACTORS
330
C
102
}
330
C
100
AcDbXrecord
280
     1
  1
DWGPROPS COOKIE
  2

  3

  4

  6

  7

  8
b.kav
  9

300
=
301
=
302
=
303
=
304
=
305
=
306
=
307
=
308
=
309
=
 40
0.0
 41
2459935.584177407
 42
2459935.584177569
  1

 90
        0
  0
LAYOUT
  5
1E
102
{ACAD_REACTORS
330
1A
102
}
330
1A
100
AcDbPlotSettings
  1

  2
none_device
  4

  6

 40
0.0
 41
0.0
 42
0.0
 43
0.0
 44
0.0
 45
0.0
 46
0.0
 47
0.0
 48
0.0
 49
0.0
140
0.0
141
0.0
142
1.0
143
1.0
 70
   688
 72
     1
 73
     0
 74
     5
  7

 75
    16
147
1.0
148
0.0
149
0.0
100
AcDbLayout
  1
Layout1
 70
     1
 71
     1
 10
0.0
 20
0.0
 11
420.0
 21
297.0
 12
0.0
 22
0.0
 32
0.0
 14
1.0000000000E+20
 24
1.0000000000E+20
 34
1.0000000000E+20
 15
-1.0000000000E+20
 25
-1.0000000000E+20
 35
-1.0000000000E+20
146
0.0
 13
0.0
 23
0.0
 33
0.0
 16
1.0
 26
0.0
 36
0.0
 17
0.0
 27
1.0
 37
0.0
 76
     0
330
1B
  0
LAYOUT
  5
26
102
{ACAD_REACTORS
330
1A
102
}
330
1A
100
AcDbPlotSettings
  1

  2
none_device
  4

  6

 40
0.0
 41
0.0
 42
0.0
 43
0.0
 44
0.0
 45
0.0
 46
0.0
 47
0.0
 48
0.0
 49
0.0
140
0.0
141
0.0
142
1.0
143
1.0
 70
   688
 72
     1
 73
     0
 74
     5
  7

 75
    16
147
1.0
148
0.0
149
0.0
100
AcDbLayout
  1
Layout2
 70
     1
 71
     2
 10
0.0
 20
0.0
 11
0.0
 21
0.0
 12
0.0
 22
0.0
 32
0.0
 14
0.0
 24
0.0
 34
0.0
 15
0.0
 25
0.0
 35
0.0
146
0.0
 13
0.0
 23
0.0
 33
0.0
 16
1.0
 26
0.0
 36
0.0
 17
0.0
 27
1.0
 37
0.0
 76
     0
330
23
  0
LAYOUT
  5
22
102
{ACAD_REACTORS
330
1A
102
}
330
1A
100
AcDbPlotSettings
  1

  2
none_device
  4
Letter_(8.50_x_11.00_Inches)
  6

 40
6.35
 41
6.35
 42
6.35000508
 43
6.35000508
 44
215.9
 45
279.4
 46
0.0
 47
0.0
 48
0.0
 49
0.0
140
0.0
141
0.0
142
1.0
143
1.0
 70
  1712
 72
     1
 73
     0
 74
     0
  7

 75
     0
147
1.0
148
0.0
149
0.0
100
AcDbLayout
  1
Model
 70
     1
 71
     0
 10
0.0
 20
0.0
 11
279.4
 21
215.9
 12
0.0
 22
0.0
 32
0.0
 14
0.0
 24
0.0
 34
0.0
 15
279.4
 25
215.9
 35
0.0
146
0.0
 13
0.0
 23
0.0
 33
0.0
 16
1.0
 26
0.0
 36
0.0
 17
0.0
 27
1.0
 37
0.0
 76
     0
330
1F
331
29
  0
MLINESTYLE
  5
18
102
{ACAD_REACTORS
330
17
102
}
330
17
100
AcDbMlineStyle
  2
Standard
 70
     0
  3

 62
   256
 51
90.0
 52
90.0
 71
     2
 49
0.5
 62
   256
  6
BYLAYER
 49
-0.5
 62
   256
  6
BYLAYER
  0
ACDBPLACEHOLDER
  5
F
102
{ACAD_REACTORS
330
E
102
}
330
E
  0
SCALE
  5
48
102
{ACAD_REACTORS
330
47
102
}
330
47
100
AcDbScale
 70
     0
300
1:1
140
1.0
141
1.0
290
     1
  0
SCALE
  5
49
102
{ACAD_REACTORS
330
47
102
}
330
47
100
AcDbScale
 70
     0
300
1:2
140
1.0
141
2.0
290
     0
  0
SCALE
  5
4A
102
{ACAD_REACTORS
330
47
102
}
330
47
100
AcDbScale
 70
     0
300
1:4
140
1.0
141
4.0
290
     0
  0
SCALE
  5
4B
102
{ACAD_REACTORS
330
47
102
}
330
47
100
AcDbScale
 70
     0
300
1:5
140
1.0
141
5.0
290
     0
  0
SCALE
  5
4C
102
{ACAD_REACTORS
330
47
102
}
330
47
100
AcDbScale
 70
     0
300
1:8
140
1.0
141
8.0
290
     0
  0
SCALE
  5
4D
102
{ACAD_REACTORS
330
47
102
}
330
47
100
AcDbScale
 70
     0
300
1:10
140
1.0
141
10.0
290
     0
  0
SCALE
  5
4E
102
{ACAD_REACTORS
330
47
102
}
330
47
100
AcDbScale
 70
     0
300
1:16
140
1.0
141
16.0
290
     0
  0
SCALE
  5
4F
102
{ACAD_REACTORS
330
47
102
}
330
47
100
AcDbScale
 70
     0
300
1:20
140
1.0
141
20.0
290
     0
  0
SCALE
  5
50
102
{ACAD_REACTORS
330
47
102
}
330
47
100
AcDbScale
 70
     0
300
1:30
140
1.0
141
30.0
290
     0
  0
SCALE
  5
51
102
{ACAD_REACTORS
330
47
102
}
330
47
100
AcDbScale
 70
     0
300
1:40
140
1.0
141
40.0
290
     0
  0
SCALE
  5
52
102
{ACAD_REACTORS
330
47
102
}
330
47
100
AcDbScale
 70
     0
300
1:50
140
1.0
141
50.0
290
     0
  0
SCALE
  5
53
102
{ACAD_REACTORS
330
47
102
}
330
47
100
AcDbScale
 70
     0
300
1:100
140
1.0
141
100.0
290
     0
  0
SCALE
  5
54
102
{ACAD_REACTORS
330
47
102
}
330
47
100
AcDbScale
 70
     0
300
2:1
140
2.0
141
1.0
290
     0
  0
SCALE
  5
55
102
{ACAD_REACTORS
330
47
102
}
330
47
100
AcDbScale
 70
     0
300
4:1
140
4.0
141
1.0
290
     0
  0
SCALE
  5
56
102
{ACAD_REACTORS
330
47
102
}
330
47
100
AcDbScale
 70
     0
300
8:1
140
8.0
141
1.0
290
     0
  0
SCALE
  5
57
102
{ACAD_REACTORS
330
47
102
}
330
47
100
AcDbScale
 70
     0
300
10:1
140
10.0
141
1.0
290
     0
  0
SCALE
  5
58
102
{ACAD_REACTORS
330
47
102
}
330
47
100
AcDbScale
 70
     0
300
100:1
140
100.0
141
1.0
290
     0
  0
SCALE
  5
59
102
{ACAD_REACTORS
330
47
102
}
330
47
100
AcDbScale
 70
     0
300
1/128" = 1'-0"
140
0.0078125
141
12.0
290
     0
  0
SCALE
  5
5A
102
{ACAD_REACTORS
330
47
102
}
330
47
100
AcDbScale
 70
     0
300
1/64" = 1'-0"
140
0.015625
141
12.0
290
     0
  0
SCALE
  5
5B
102
{ACAD_REACTORS
330
47
102
}
330
47
100
AcDbScale
 70
     0
300
1/32" = 1'-0"
140
0.03125
141
12.0
290
     0
  0
SCALE
  5
5C
102
{ACAD_REACTORS
330
47
102
}
330
47
100
AcDbScale
 70
     0
300
1/16" = 1'-0"
140
0.0625
141
12.0
290
     0
  0
SCALE
  5
5D
102
{ACAD_REACTORS
330
47
102
}
330
47
100
AcDbScale
 70
     0
300
3/32" = 1'-0"
140
0.09375
141
12.0
290
     0
  0
SCALE
  5
5E
102
{ACAD_REACTORS
330
47
102
}
330
47
100
AcDbScale
 70
     0
300
1/8" = 1'-0"
140
0.125
141
12.0
290
     0
  0
SCALE
  5
5F
102
{ACAD_REACTORS
330
47
102
}
330
47
100
AcDbScale
 70
     0
300
3/16" = 1'-0"
140
0.1875
141
12.0
290
     0
  0
SCALE
  5
60
102
{ACAD_REACTORS
330
47
102
}
330
47
100
AcDbScale
 70
     0
300
1/4" = 1'-0"
140
0.25
141
12.0
290
     0
  0
SCALE
  5
61
102
{ACAD_REACTORS
330
47
102
}
330
47
100
AcDbScale
 70
     0
300
3/8" = 1'-0"
140
0.375
141
12.0
290
     0
  0
SCALE
  5
62
102
{ACAD_REACTORS
330
47
102
}
330
47
100
AcDbScale
 70
     0
300
1/2" = 1'-0"
140
0.5
141
12.0
290
     0
  0
SCALE
  5
63
102
{ACAD_REACTORS
330
47
102
}
330
47
100
AcDbScale
 70
     0
300
3/4" = 1'-0"
140
0.75
141
12.0
290
     0
  0
SCALE
  5
64
102
{ACAD_REACTORS
330
47
102
}
330
47
100
AcDbScale
 70
     0
300
1" = 1'-0"
140
1.0
141
12.0
290
     0
  0
SCALE
  5
65
102
{ACAD_REACTORS
330
47
102
}
330
47
100
AcDbScale
 70
     0
300
1-1/2" = 1'-0"
140
1.5
141
12.0
290
     0
  0
SCALE
  5
66
102
{ACAD_REACTORS
330
47
102
}
330
47
100
AcDbScale
 70
     0
300
3" = 1'-0"
140
3.0
141
12.0
290
     0
  0
SCALE
  5
67
102
{ACAD_REACTORS
330
47
102
}
330
47
100
AcDbScale
 70
     0
300
6" = 1'-0"
140
6.0
141
12.0
290
     0
  0
SCALE
  5
68
102
{ACAD_REACTORS
330
47
102
}
330
47
100
AcDbScale
 70
     0
300
1'-0" = 1'-0"
140
12.0
141
12.0
290
     0
  0
ENDSEC
  0
EOF
